5 string bass or 4 string tuned to BEAD (timmy c. use a four string tuned BEAD)

Verse
G|------------------------|
D|--------------------3---|
A|-----5----5----5-----5--|
E|--3----3----3----3------|
B|------------------------|

Chorus
G|----------------------------------------------------------------------|
D|----------------------------------------------------------------------|
A|-----------8----------------8--12-10--6------8-------6------5------5--|
E|--3---5-6-----5----3---5-6---------------5------5------5--------------|
B|----------------8--------------------------8------8------8-----333----|

Verse
G|------------------------|
D|--------------------3---|
A|-----5----5----5-----5--|
E|--3----3----3----3------|
B|------------------------|

Chorus
G|-------------------------------------------------------------------------|
D|-------------------------------------------------------------------------|
A|-----------8----------------8--12-10--6------8-------6------5------5-----|
E|--3---5-6-----5----3---5-6---------------5------5------5-----------------|
B|----------------8--------------------------8------8------8-----333----333|

Solo
G|---------------------------------------------|
D|---------------------------------------------|
A|--------------8--------------------8--12-10--|
E|--3---5-6-666-----5----3---5-6-666-----------|
B|--------------------8------------------------|

G|--------------------------------------|
D|--------------------------------------|
A|--66666666----------88888888----------|
E|--------------------------------------|
B|-----------88888888----------88888888-|

G|--------------------------------|
D|--------------------------------|
A|--66666666----------88888888----|
E|--------------------------------|
B|-----------88888888----------8--|

G|----------------------------------------------|
D|----------------------------------------------|
A|--6---6----5---56--6---63---5555555555555555--|
E|-------6--------------------------or----------|
B|----------------------------3333333333333333--|

Chorus
G|-------------------------------------------------------------------------|
D|-------------------------------------------------------------------------|
A|-----------8----------------8--12-10--6------8-------6------5------5-----|
E|--3---5-6-----5----3---5-6---------------5------5------5-----------------|
B|----------------8--------------------------8------8------8-----333----333|

End On
G|-----|
D|-----|
A|--5--|
E|-----|
B|-----|


Текст, аккорды и табулатура для песни "Like A Stone", исполняет "Audioslave".
Используемые в песне аккорды можно найти в разделе Как брать аккорды. Аккорды для шестиструнной гитары. Другие песни можно найти на нашем сайте, воспользовавшись алфавитным указателем вверху страницы.


Слушать онлайн Like A Stone


AudioslaveLike A Stone на Яндекс.Музыке


 
Ошибка в тексте? Выделите ошибку и нажмите Ctrl+Enter