Standard tuning (EADG)
I think this tab is quite close to the actual bass line, but some notes are
a bit off.

VERSE
|-----------------------------|
|-----------------------------|
|----5-5----5-5----5-5----8-5-|
|-3------3------3------3------|

CHORUS 1 (Part 1)
|---------------------------------|
|---------------------------------|
|----5-8--8-10-5----5-8-8-8-12-10-|
|-3--------------3----------------|

CHORUS 1 (Part 2)
|---------------------------------------|
|---------------------------------------|
|-6--8-5--8-10-5-6--8-5~----5-------5---|
|-----------------------------3-3-3-----|


CHORUS 2 (Part 1)
|---------------------------------|
|---------------------------------|
|----5-8--8-10-5----5-8-8-8-12-10-|
|-3--------------3----------------|

CHORUS 2 (Part 2)
|-------------------------------------------------------|
|-------------------------------------------------------|
|-6--8-5--8-10-5-6--8-5~----5-------5~----5-------5~----|
|-----------------------------3-3-3---------3-3-3-------|

SOLO (Part 1)
|--------------------------------------------|
|--------------------------------------------|
|---------------8--------------------8-12-10-|
|-3--5-6--6-6-6---5-3--3--5-6--6-6-6---------|

SOLO (Part 2)
|------------------------------------------------------------------|
|------------------------------------------------------------------|
|-66666666----------88888888----------6666666----------55555555----|
|----------33333333----------33333333---------33333333----------3~-|

ACOUSTIC PART (wait a couple of bars)
|-----------------------------|------------------|
|-----------------------------|------------------|
|-----------5--5--------------|-5555555555555555-|
|-5--5-7--7------5--5--5-7--7-|------------------|

End with chorus 2, then-

A|-6~-|


Текст, аккорды и табулатура для песни "Like A Stone", исполняет "Audioslave".
Используемые в песне аккорды можно найти в разделе Как брать аккорды. Аккорды для шестиструнной гитары. Другие песни можно найти на нашем сайте, воспользовавшись алфавитным указателем вверху страницы.


Слушать онлайн Like A Stone


AudioslaveLike A Stone на Яндекс.Музыке


 
Ошибка в тексте? Выделите ошибку и нажмите Ctrl+Enter