-------------------------------------------------------------------------------
			     Like A Stone - Audioslave
-------------------------------------------------------------------------------
Tabbed By : Skunk

Tuning: Standard Tuning

It's a great song, and I'm pretty sure it's correct,
just watch the timing and the arrangements I did.

Verse

G|---------------|
D|---------------|  play this 3 times
A|----x-x-5/-----|
E|-3-------------|

 in the fourth time play:

G|---------------|
D|---------------| 
A|----x-x-8/-----|
E|-3-------------|

Chorus

G|------------------------------------------------------------|
D|------------------------------------------------------------|
A|---------8-/------------8-8/10h12p10--6---8-/--6----5--5-|
E|-3--5-6------3--3--5-6--------------------3------3---3------|

Guitar Solo

I made some arrangements during the solo and it sound really cool
G|--------------10--------------------------------|
D|------------10----------------------------------|
A|---------8-----8/----------------8-8/10h12p10-|
E|-3--5-6-----------3--0-1-2-3--5-6---------------|

inmediatly
G|---------------------------------------------------------|
D|---------------------------------------------------------|
A|66666666--------88888888--------66666666-------55555555~-|
E|--------33333333--------33333333--------3333333----------|

Bridge

G|----------------------------------------------|
D|----------------------------------------------|
A|6---6-----5---5-6---6---6-3---55555555555555/-|
E|-----6---6------------------------------------|

Ends in
A|-6-|

Verse
Chorus
Verse
Chorus
Guitar Solo (Chorus)
Bridge
Chorus


Текст, аккорды и табулатура для песни "Like A Stone", исполняет "Audioslave".
Используемые в песне аккорды можно найти в разделе Как брать аккорды. Аккорды для шестиструнной гитары. Другие песни можно найти на нашем сайте, воспользовавшись алфавитным указателем вверху страницы.


Слушать онлайн Like A Stone


AudioslaveLike A Stone на Яндекс.Музыке


 
Ошибка в тексте? Выделите ошибку и нажмите Ctrl+Enter