Song: Like A Stone
Band: Audioslave
Album: Audioslave (2002)
Tabbed By: HaVIC5
Tuning: Dropped D

Guitar Intro – Rest for 4 measures

Verse x4
G-|----------------------------------------|
D-|-----------------------------------3----|
A-|-----5-5------5-5------5-5--------5-|
D-|-5---------5---------5---------5--------|

Chorus-
G-|---------------------------------------------|
D-|----------------------------------------/7-5-|
A-|------------/8---------------------/8--------|
D-|-5---7-8---------8-5----5----8---------------|

G-|------------------------------------|
D-|------------------------------------|
A-|-/6----------/8---------/6----------|
D-|------8-5--------8-5---------8-5----|

Post Chorus-
G-|---------------------|
D-|---------------------|
A-|-5---------5---------|
D-|-----0-0-0-----0-0-0-|

Verse x4

Chorus x1

Post Chorus 2 x2

G-|----------------|
D-|----------------|
A-|-5---------5----|
D-|-----0-0-0------|

Guitar Solo (with light distortion)-
G-|------------------------------------------------|
D-|----------------------------------------/7-5/---|
A-|------------/8---------------------/8-----------|
D-|-5---7-8---------8-5----5---7-8-----------------|

G-|-------------------------------------------------------------------|
D-|-------------------------------------------------------------------|
A-|-/6-6-6-6-6-6-6-6-----------------/8-8-8-8-8-8-8-8-----------------|
D-|------------------5-5-5-5-5-5-5-5------------------5-5-5-5-5-5-5-5-|

G-|------------------------------------------------------------------|
D-|------------------------------------------------------------------|
A-|-/6-6-6-6-6-6-6-6-----------------5-5-5-5-5-5-5-5-----------------|
D-|------------------5-5-5-5-5-5-5-5-----------------0-0-0-0-0-0-0-0-|

Interlude- Rest for 8 measures before playing-
G-|-------------------------------------------------------------------|
D-|-------------------------------------------------------------------|
A-|-6-------------------6---------------------------------------------|
D-|------8----6----8---------8----0-0-0-0-0-0-0-0---------------------|

Chorus x1
Post Chorus 2 x2

Final Note-

G-|----|
D-|----|
A-|-/6-|
D-|----|

Any questions/comments can be sent to [email protected]


Текст, аккорды и табулатура для песни "Like A Stone", исполняет "Audioslave".
Используемые в песне аккорды можно найти в разделе Как брать аккорды. Аккорды для шестиструнной гитары. Другие песни можно найти на нашем сайте, воспользовавшись алфавитным указателем вверху страницы.


Слушать онлайн Like A Stone


AudioslaveLike A Stone на Яндекс.Музыке


 
Ошибка в тексте? Выделите ошибку и нажмите Ctrl+Enter