Audioslave - Like A Stone

Tabbed By Stephen Pang ([email protected])

* Dropped D Tuning *

Verse
G|-------------------------------------|
D|--------------------------------3----|
A|----------------------------------5--|
D|-5---12--5---12--5---12--5--------|

Chorus
G|--------------------|--------------------|
D|--------------------|-------------/7-----|
A|----------/8--------|---------/8-----10--|
D|-5--7-8-------8-5--|-5--7-8-------------|

G|--------------------|----------------------|
D|--------------------|----------------------|
A|-6---------8--------|-6--------5--------5--|
D|----8-5------8-5--|----8-5-----0-0-0----|

Solo Second Half
G|---------------------------------|
D|---------------------------------|
A|-6-6-6-6-6-6-6-6-----------------|
D|-----------------5-5-5-5-5-5-5-5-|

G|---------------------------------|
D|---------------------------------|
A|-8-8-8-8-8-8-8-8-----------------|
D|-----------------5-5-5-5-5-5-5-5-|

G|---------------------------------|
D|---------------------------------|
A|-6-6-6-6-6-6-6-6-----------------|
D|-----------------5-5-5-5-5-5-5-5-|

G|---------------------|
D|---------------------|
A|-5-5-5-5-5-5-5-5-5---|
D|-----------------0---|

Last Verse
G|----------------------|---------------------------|
D|----------------------|---------------------------|
A|--6--5------5--5-6--5-|-6---3---5-----------------|
D|-------8--8-----------|-----------0-0-0-0-0-0-0-0-|

G|-----------------|
D|-----------------|
A|-----------------|
D|-0-0-0-0-0-0-0-0-|


Текст, аккорды и табулатура для песни "Like A Stone", исполняет "Audioslave".
Используемые в песне аккорды можно найти в разделе Как брать аккорды. Аккорды для шестиструнной гитары. Другие песни можно найти на нашем сайте, воспользовавшись алфавитным указателем вверху страницы.


Слушать онлайн Like A Stone


AudioslaveLike A Stone на Яндекс.Музыке


 
Ошибка в тексте? Выделите ошибку и нажмите Ctrl+Enter