Audioslave
Like A Stone

Tabbed by Neal Petrosky 
[email protected]

standard tuning
clean with tremelo pedal
intro/verse
e--------------------------------------------------------------
b--------------------------------------------------------------
g--------------------------------------------------------------
d--------------------------------------------------------------
a-13-------15----------12-------13----12-----------------------
E-----15-------13-/10-------11-----11--------------------------
chorus x2(guitar 1 still has tremelo, guitar 2 does not)
e--------------------------------------------------------------
b--------------------------------------------------------------
g-----------10-------------------------------------------------
d-5----8----10----5--------------------------------------------
a-5----8-----8----5--------------------------------------------
E-3----6----------3--------------------------------------------
last time:
e--------------------------------------------------------------
b--------------------------------------------------------------
g-8--------10----------8---------7----7------------------------
d-8----5---10----5-----8----5----7----7------------------------
a-6----5----8----5-----6----5----5----5------------------------
E------3---------3----------3----------------------------------
solo (with delay and whammy set up one octave... bend the notes with the whammy)
e--------------------------------------------------------------
b--------------------------------------------------------------
g----------------17~------------------------------------17-19--
d-17~--19--20~---------20-19-17~------17~---19-------20--------
a-----------------------------------------------20~------------
E--------------------------------------------------------------

e--18-18-17-17-------------18-18-17-17-------------------------
b--------------18-18-------------------18-18-------------------
g--------------------19-19-------------------19-19-------------
d--------------------------------------------------------------
a--------------------------------------------------------------
E--------------------------------------------------------------

e--18-18-17-17-------------18-18-17-17-------------------------
b--------------18-18-------------------18-18-------------------
g--------------------19-19-------------------19-19-------------
d--------------------------------------------------------------
a--------------------------------------------------------------
E--------------------------------------------------------------

e--------------------------------------------------------------
b--------------------------------------------------------------
g--------------------------------------------------------------
d-/5-/7-/8-/10-/12-/13-/15-/17-/19-/20-/19-/20-/19~~~----------
a--------------------------------------------------------------
E--------------------------------------------------------------
breakdown with acoustic guitar 
e--6----8----5----6------6----3----5----3--
b--8----8----7----8------7----3----7----3--
g--8----7----7----8------8----5----7----3--
d--8----8----7----8------8----5----7----5--
a--6----8----5----6------6----3----5----5--
E-------6-------------------------------3--

e--6----8----5----6------6----3------------
b--8----8----7----8------7----3------------
g--8----7----7----8------8----5----7-7-7-7-
d--8----8----7----8------8----5----7-7-7-7-
a--6----8----5----6------6----3----5-5-5-5-
E-------6----------------------------------
                                   ^kick in tremelo
back into chorus
last time:
e------------------------------------------
b------------------------------------------
g--8---------7----7------7----7--------8---
d--8----5----7----7------7----7--------8---
a--6----5----5----5------5----5--------6---
E-------3----------------------------------


Текст, аккорды и табулатура для песни "Like A Stone", исполняет "Audioslave".
Используемые в песне аккорды можно найти в разделе Как брать аккорды. Аккорды для шестиструнной гитары. Другие песни можно найти на нашем сайте, воспользовавшись алфавитным указателем вверху страницы.


Слушать онлайн Like A Stone


AudioslaveLike A Stone на Яндекс.Музыке


 
Ошибка в тексте? Выделите ошибку и нажмите Ctrl+Enter