This Audioslave song is tuned up 1/2 a step to F, A#, D#, G#, C, F from what I
can tell (or capo on first fret). This tab is written for a retuned guitar, so if
you're using a capo, play it all in relation to the capo and not from what fret
it truely is

Intro/Verse
|----------------------
|----------------------
|------------------7-6-
|-7----9------6--------
|---9----7--4----5-----
|----------------------

Chorus
|------------------
|------------------
|-----------9------
|-4----7----9----4-
|-4----7----7----4-
|-2----5---------2-  play twice

|---------------------------------------
|---------------------------------------
|-7---------9---------7---------6----6--
|-7----4----9----4----7----4----6----6--
|-5----4----7----4----5----4----4----4--
|------2---------2---------2------------

Verse
|----------------------
|----------------------
|------------------7-6-
|-7----9------6--------
|---9----7--4----5-----
|----------------------

Chorus
|------------------
|------------------
|-----------9------
|-4----7----9----4-
|-4----7----7----4-
|-2----5---------2-  play twice

|---------------------------------------
|---------------------------------------
|-7---------9---------7---------6----6--
|-7----4----9----4----7----4----6----6--
|-5----4----7----4----5----4----4----4--
|------2---------2---------2------------

Solo
|------------7--------------------------7-9-9-9--17-16-------17-16-------17-16-
|-7---9-10-----10-9-7---7---9-/5-5---10----------------17-14-------17-14-------
|------------------------------------------------------------------------------
|------------------------------------------------------------------------------
|------------------------------------------------------------------------------
|------------------------------------------------------------------------------

|-------17-16--------------------------------------------
|-17-14-------17-14--------------------------------------
|------------------------------------9-11-13-14-13-14-13-
|----------------------------9-11-12---------------------
|--------------------9-11-12-----------------------------
|--------------------------------------------------------

Bridge thing
|--2----0----0----2----0----0----2----0----0----2---0----0----2----0----0------
|--3----2----0----3----0----0----3----0----0----3---0----0----3----0----0------
|--2----2----1----2----2----1----2----2----1----2---2----1----2----2----1----1-
|--0----2----2----0----4----2----0----4----2----0---4----2----0----4----2----2-
|-------0----2--------------2--------------2-------------2--------------2----2-
|------------0--------------0--------------0-------------0--------------0----0-

Chorus/Outro
|------------------
|------------------
|-----------9------
|-4----7----9----4-
|-4----7----7----4-
|-2----5---------2-  play twice

|-----------------------------------------------------
|-----------------------------------------------------
|-7---------9---------7---------6----6----6----6----7-
|-7----4----9----4----7----4----6----6----6----6----7-
|-5----4----7----4----5----4----4----4----4----4----5-
|------2---------2---------2--------------------------

It should be all present and correct.  if you have any questions, don't bother to
e-mail me, cos I probably won't read it, and if you're still thinking it sounds
wrong, retune your guitar 1/2 a step up or put a capo on the first fret, cos it
is right. if you really want to e-mail me with questions/advice/whatever
[email protected]


Текст, аккорды и табулатура для песни "Like A Stone", исполняет "Audioslave".
Используемые в песне аккорды можно найти в разделе Как брать аккорды. Аккорды для шестиструнной гитары. Другие песни можно найти на нашем сайте, воспользовавшись алфавитным указателем вверху страницы.


Слушать онлайн Like A Stone


AudioslaveLike A Stone на Яндекс.Музыке


 
Ошибка в тексте? Выделите ошибку и нажмите Ctrl+Enter