by:josh
band:Audioslave
album:Audioslave
song:Like A Stone
tuning:E A D G B E
date:november 22, 2002

by the way on the tuning tom morello said in guitar world 
that he plays this in standard but tuned either one step up 
or 1 half step up i guess he couldnt remember at the moment
since i wasnt sure either i just did this in standard

key:
~ = hold
b = bend
()= play only last time
||= on the last time play these not with light distortion and palm muted

intro and verse : clean
E---------------------------------
B---------------------------------
G---------------------------------
D----5-----3-----7-----8-----7----
A---------------------------------
E-3-----1-----5-----6-----5-----5-

chorus : light distortion
E------------------
B------------------
G-8----------------
D-8----8----3----5-
A-6----8----3----5-
E------6----1----3-

chorus 2 : light distortion
E----------------------------------------
B----------------------------------------
G-8--------------------------------------
D-8----8----3----5----(3----5----3----5)-
A-6----8----3----5----(3----5----3----5)-
E------6----1----3----(1----3----1----3)-

solo : distorted with some kinda effect i 
just use a wah wah in the down position
E---------------------------------------------------------
B-------------------------------------------------18~-20~-
G-12~--14~--15~-14~--10-12--12~--14~--15~-15~-17~---------
D---------------------------------------------------------
A---------------------------------------------------------
E---------------------------------------------------------

E-22-20-------22-20-------22-20-------22-20-------
B-------22-20-------22-20-------22-20-------22-20-
G-------------------------------------------------
D-------------------------------------------------
A-------------------------------------------------
E-------------------------------------------------

E-----------------------------------
B-----------------------------------
G---2-3-5-7-8-10-12-14-15-14-15-14b-
D-5---------------------------------
A---0-1-3-5-6--8-10-12-13-12-13-12b-
E-3---------------------------------

breakdown : clean maybe acoustic
E-----------------------------------
B-8-8-8-8---------------------------
G-8-8-8-8-7-7-7-7-------------------
D-8-8-8-8-8-8-8-8-|3-3-3-3-5-5-5-5|-
A-6-6-6-6-8-8-8-8-|3-3-3-3-5-5-5-5|-
E---------6-6-6-6-|1-1-1-1-3-3-3-3|-


order:
intro/verse 6x
chorus 4x
intro/verse 6x
chorus 2 4x
solo 1x
breakdown 4x
chorus 2 4x


Текст, аккорды и табулатура для песни "Like A Stone", исполняет "Audioslave".
Используемые в песне аккорды можно найти в разделе Как брать аккорды. Аккорды для шестиструнной гитары. Другие песни можно найти на нашем сайте, воспользовавшись алфавитным указателем вверху страницы.


Слушать онлайн Like A Stone


AudioslaveLike A Stone на Яндекс.Музыке


 
Ошибка в тексте? Выделите ошибку и нажмите Ctrl+Enter