i dont no what effects they use for the song but just play around
till you find it
 
intro

e------------------------------------|
b------------------------------------|
g------------------------------------|                            
d--8------10-----------------13--12--|      
a-----10-----8------12---------------|
E---------------10------11-----------|   x2

verse

e------------------------------------|
b------------------------------------|
g------------------------------------|
d--8------10-----------------13--12--|
a-----10-----8------12---------------|
E---------------10------11-----------|   x4

chorus

e-----------------------------------|
b-----------------------------------|
g-----------------------------------|
d--5----8----3----5-----------------|
a--5----8----3----5-----------------|
E--3----6----1----3-----------------|   x2

e---------------------------------------|
b---------------------------------------|
g--8-------------------8---------7----7-|
d--8----5----3----5----8----5----7----7-|
a--6----5----3----5----6----5----5----5-|
E--6----3----1----3----6----3----5----5-|

verse

e----------------------------------|
b----------------------------------|
g----------------------------------|
d--8------10---------------13--12--|
a-----10------8------12------------|
E---------------10------11---------|    x5

chorus

e----------------------|
b----------------------|
g----------------------|
d--5----8----3----5----|
a--5----8----3----5----|
E--3----6----1----3----|    x2

e----------------------------------------------------|
b----------------------------------------------------|
g--8-------------------8---------7----7----7----7----|
d--8----5----3----5----8----5----7----7----7----7----|
a--6----5----3----5----6----5----5----5----5----5----|
E--6----3----1----3----6----3----5----5----5----5----|

solo

e-------------------------------------------------------|
b-------------------------------------------------------|
g--12--14-15----17-15-14-12----12--14-10----15--17--19--|
d-------------------------------------------------------|
a-------------------------------------------------------|
E-------------------------------------------------------|

e--18-17-------18-17-------18-17-------18-17--------|
b--------18-15-------18-15-------18-15-------18-15--|
g---------------------------------------------------|
d---------------------------------------------------|
a---------------------------------------------------|
E---------------------------------------------------|

e--------------------------17-18-17-18-17~--|
b--------------------18-20------------------|
g--12-14-15-17-19-20------------------------|
d-------------------------------------------|
a-------------------------------------------|
E-------------------------------------------|

break down

e------------------------------------------------------|
b------------------------------------------------------|
g--8-8-8-8-8-8-----------------------------------------|
d--8-8-8-8-8-8--8-8-8-8-8-8--3-3-3-3-3-3--5-5-5-5-5-5--|
a--6-6-6-6-6-6--8-8-8-8-8-8--3-3-3-3-3-3--5-5-5-5-5-5--|
E--6-6-6-6-6-6--6-6-6-6-6-6--1-1-1-1-1-1--3-3-3-3-3-3--|

e------------------------------------------------------|
b--7-7-7-7-7-7-----------------------------------------|
g--8-8-8-8-8-8-----------------------------------------|
d--8-8-8-8-8-8--8-8-8-8-8-8--3-3-3-3-3-3--5-5-5-5-5-5--|
a--6-6-6-6-6-6--8-8-8-8-8-8--3-3-3-3-3-3--5-5-5-5-5-5--|
E--6-6-6-6-6-6--6-6-6-6-6-6--1-1-1-1-1-1--3-3-3-3-3-3--|

e------------------------------------------------------|
b------------------------------------------------------|
g--8-8-8-8-8-8-----------------------------------------|
d--8-8-8-8-8-8--8-8-8-8-8-8--3-3-3-3-3-3--5-5-5-5-5-5--|
a--6-6-6-6-6-6--8-8-8-8-8-8--3-3-3-3-3-3--5-5-5-5-5-5--|
E--6-6-6-6-6-6--6-6-6-6-6-6--1-1-1-1-1-1--3-3-3-3-3-3--|

e-------------------------------------------------------|
b--7-7-7-7-7-7------------------------------------------|
d--8-8-8-8-8-8--8-8-8-8-8-8--7-7-7-7-7-7-7-7-7-7-7-7-7--|
g--8-8-8-8-8-8--8-8-8-8-8-8--7-7-7-7-7-7-7-7-7-7-7-7-7--|
a--6-6-6-6-6-6--8-8-8-8-8-8--5-5-5-5-5-5-5-5-5-5-5-5-5--|
E--6-6-6-6-6-6--6-6-6-6-6-6--5-5-5-5-5-5-5-5-5-5-5-5-5--|

chorus

e-----------------------|
b-----------------------|
d-----------------------|
g--5----8----3----5-----|
a--5----8----3----5-----|
E--3----6----1----3-----|    x2

e----------------------------------------------------|
b----------------------------------------------------|
d--8-------------------8---------7----7----7----7----|
g--8----5----3----5----8----5----7----7----7----7----|
a--6----5----3----5----8----5----5----5----5----5----|
E--6----3----1----3----6----3----5----5----5----5----|

e-----------------|
b-----------------|
d--8--------------|
g--8--(let ring)--|
a--6--------------|
E--6--------------|


Текст, аккорды и табулатура для песни "Like A Stone", исполняет "Audioslave".
Используемые в песне аккорды можно найти в разделе Как брать аккорды. Аккорды для шестиструнной гитары. Другие песни можно найти на нашем сайте, воспользовавшись алфавитным указателем вверху страницы.


Слушать онлайн Like A Stone


AudioslaveLike A Stone на Яндекс.Музыке


 
Ошибка в тексте? Выделите ошибку и нажмите Ctrl+Enter