ARTIST: Audioslave
SONG: Like A Stone
TUNING: standard
TABBED: Aaron M

fantastic song. i've gotten most of it here, the only problem is there are maybe
2 or 3 chords which don't give off the full sound that morello plays, so
corrections are very welcome and i hope someone can figure them out and any other
rusty spots for me.  it's here for the most part. should be self-explanitory.

oh yea, and those lyrics are what i could pick up.  if you hear something
different, i'm open. like i said, this is the best i could come up with right
now, so if you have something that fits better, please send.

riff 1 (main riff)
0:00-0:52, 1:28-2:12
E|---------------------
B|---------------------
G|-3---5--------2---8-7
D|---5----3---0--------
A|----------------6----
E|---------------------

chorus pt. 1
0:53-1:10, 2:13-2:30, 4:03-4:20
E|-----------
B|-----------
G|----------- 2x
D|-----------
A|-5--8--3--5
E|-3--6--1--3

chorus pt. 2
1:11-1:27, 2:31-2:52, 4:21-4:43
E|-----------------------
B|-----------------------
G|-----------------------
D|-8-----------8-----7--7
A|-6--5--3--5--6--5--5--5
E|----3--1--3-----3------

riff 2
2:53-3:10
E|--------------------------------------------------
B|--------------------------------------------------
G|-12~-14-15~-17-15-14-12----12~-14/10~-15-17-19-19~
D|--------------------------------------------------
A|--------------------------------------------------
E|--------------------------------------------------

riff 3
3:10-3:18
E|-18-17------18-17------18-17------18-17-----
B|------18-15------18-15------18-15------18-15
G|--------------------------------------------
D|--------------------------------------------
A|--------------------------------------------
E|--------------------------------------------

riff 4 (doesn't sound exact but will do)
3:19-3:28
E|-----------------------------------
B|-----------------------------------
G|---2-3-5-7-8-10-12-14-15-14-15-14~-
D|-5---------------------------------
A|---0-1-3-5-6--8-10-12-13-12-13-12~-
E|-3---------------------------------

(acoustic)
3:28-4:02
      D#       A#       F       Gm       D#m       A#       F       Cm
E|-6-6-6-6--6-6-6-6--1-1-1-1--3-3-3-3--6-6-6-6--6-6-6-6--1-1-1-1--3-3-3-3
B|-8-8-8-8--6-6-6-6--1-1-1-1--3-3-3-3--7-7-7-7--6-6-6-6--1-1-1-1--3-3-3-3
G|-8-8-8-8--7-7-7-7--2-2-2-2--3-3-3-3--8-8-8-8--7-7-7-7--2-2-2-2--3-3-3-3
D|-8-8-8-8--8-8-8-8--3-3-3-3--5-5-5-5--8-8-8-8--8-8-8-8--3-3-3-3--5-5-5-5
A|-6-6-6-6--8-8-8-8--3-3-3-3--5-5-5-5--6-6-6-6--8-8-8-8--3-3-3-3--5-5-5-5
E|-6-6-6-6--6-6-6-6--1-1-1-1--3-3-3-3--6-6-6-6--6-6-6-6--1-1-1-1--3-3-3-3

      D#       A#       F       Gm       D#m       A#           D
E|-6-6-6-6--6-6-6-6--1-1-1-1--3-3-3-3--6-6-6-6--6-6-6-6--5-5-5-5-5-5-5-5
B|-8-8-8-8--6-6-6-6--1-1-1-1--3-3-3-3--7-7-7-7--6-6-6-6--7-7-7-7-7-7-7-7
G|-8-8-8-8--7-7-7-7--2-2-2-2--3-3-3-3--8-8-8-8--7-7-7-7--7-7-7-7-7-7-7-7
D|-8-8-8-8--8-8-8-8--3-3-3-3--5-5-5-5--8-8-8-8--8-8-8-8--7-7-7-7-7-7-7-7
A|-6-6-6-6--8-8-8-8--3-3-3-3--5-5-5-5--6-6-6-6--8-8-8-8--5-5-5-5-5-5-5-5
E|-6-6-6-6--6-6-6-6--1-1-1-1--3-3-3-3--6-6-6-6--6-6-6-6--5-5-5-5-5-5-5-5


on a cobweb afternoon
in a room full of emptiness
by a freeway i confess
i was lost in the pages

up above full of death
reading, i will die alone
if our god will lay to rest
anywhere we wanna go

in your house, alone to be
room by room, patiently
i wait for you there, like a stone
i wait for you there
alone

on my deathbed i will pray
to love god's only angels
like a beggar to anyone
wilting me to heaven
to a place i recall
i was there so long ago
the sky was blue
the wind was bare
and they led me on

in your house, alone to be
room by room, patiently
i wait for you there, like a stone
i wait for you there
alooooone
alooooone

and long i read
until the day was gone
and i sat in regret
of all the things i've done
for all that i've blessed
and all that i've wronged
in dreams until my death
i will wander on

in your house, alone to be
room by room, patiently
i wait for you there, like a stone
i wait for you there
alooooone
alooooone


Текст, аккорды и табулатура для песни "Like A Stone", исполняет "Audioslave".
Используемые в песне аккорды можно найти в разделе Как брать аккорды. Аккорды для шестиструнной гитары. Другие песни можно найти на нашем сайте, воспользовавшись алфавитным указателем вверху страницы.


Слушать онлайн Like A Stone


AudioslaveLike A Stone на Яндекс.Музыке


 
Ошибка в тексте? Выделите ошибку и нажмите Ctrl+Enter