Artist: Audioslave 
Song: Like A Stone 
Album: Audioslave
Author: A_Qu '03

Guitar Tuning: Standard (E A D G B e) 

Key: 
~ = Hand Vibrato 
^ = Bend

Verse:
|e|---------------------------|e|
|B|---------------------------|B|
G---------------------------G
D--8-5--10-3--0-7--1-13-12--D
A---------------------------A
E---------------------------E 

Chorus: 
|e|-----------------------|e|
|B|-----------------------|B|
G--8--------------------G
D--8-----8-----3-----5--D
A--6-----8-----3-----5--A
E--------6-----1-----3--E 

Solo: 
|e|-------------------------------------------------------------------|e|
|B|-------------------------------------------------------------------|B|
G--12~--14~-15~---17~-15~-14~-12~---12~--14~-10~---14~-15~-17~-19~--G
D-------------------------------------------------------------------D
A-------------------------------------------------------------------A
E-------------------------------------------------------------------E

|e|--18-17-------18-17-------18-17-------18-17-------|e|
|B|-------18-15-------18-15-------18-15-------18-15--|B|
G--------------------------------------------------G
D--------------------------------------------------D
A--------------------------------------------------A
E--------------------------------------------------E 

|e|---------------------------------17^-18^-17^-18^-17~--|e|
|B|-------------------------18^-20^----------------------|B|
G--12^-14^-15^-17^-19^-20^-----------------------------G
D------------------------------------------------------D
A------------------------------------------------------A
E------------------------------------------------------E 

Bridge: 
|e|--6-666--6-666--1-111-3-333--|e|
|B|--8-888--6-666--1-111-3-333--|B|
G--8-888--7-777--2-222-0-000--G
D--8-888--8-888--3-333-0-000--D
A--6-666--8-888--3-333-2-222--A
E---------6-666--1-111-3-333--E


Текст, аккорды и табулатура для песни "Like A Stone", исполняет "Audioslave".
Используемые в песне аккорды можно найти в разделе Как брать аккорды. Аккорды для шестиструнной гитары. Другие песни можно найти на нашем сайте, воспользовавшись алфавитным указателем вверху страницы.


Слушать онлайн Like A Stone


AudioslaveLike A Stone на Яндекс.Музыке


 
Ошибка в тексте? Выделите ошибку и нажмите Ctrl+Enter