Gasoline - Audioslave

Tabbed By Stephen Pang ([email protected])

* Dropped B Tuning *   (yes, it's a B, not D)

Guitar plays 4 bars, then

Intro
G|-----------------------|-------------------------|
D|-----------------------|-------------------------|
A|-----------------------|-------------------------|
B|-0--0-3h5--0-10h12-12--|-3-0--0-3h5--0-10h12-12--|

G|-------------------------|----------------|
D|-------------------------|----------------|
A|-------------------------|----------------|
B|-3-0--0-3h5--0-10h12-12--|-5-5-3h5-3-0-0--|

Verse 1
G|--------------------|
D|--------------------|
A|-------------0h2-2--| x8
B|-0--0-3h5--0--------|

G|--------------------|--------------------|
D|--------------------|--------------------|
A|-0-----------0h2-5--|-0-----------0h2-7--|
B|----0-3h5--0--------|----0-3h5--0--------|

G|--------------------|
D|--------------------|
A|-------------0h2-2--| x6
B|-0--0-3h5--0--------|

G|--------------------|--------------------|
D|--------------------|--------------------|
A|-0-----------0h2-5--|-0-----------0h2-7--|
B|----0-3h5--0--------|----0-3h5--0--------|

G|--------------------|
D|--------------------|
A|-------------0h2-2--| x2
B|-0--0-3h5--0--------|

Chorus 1
G|-----------------------|-------------------------|
D|-----------------------|-------------------------|
A|-----------------------|-------------------------|
B|-0--0-3h5--0-10h12-12--|-3-0--0-3h5--0-10h12-12--|

G|-------------------------|-------------------------|
D|-------------------------|-------------------------|
A|-------------------------|-------------------------|
B|-3-0--0-3h5--0-10h12-12--|-3-0--0-3h5--0-10h12-12--|


G|--------------------------|--------------------------|
D|--------------------------|--------------------------|
A|-------------5p2-0----0h2-|-------------5p2-0----0h2-|
B|-0--0-3h5--0-------3------|-0--0-3h5--0-------3------|

G|--------------------------|-----------------|
D|--------------------------|-----------------|
A|-------------5p2-0----0h2-|-----------------|
B|-0--0-3h5--0-------3------|-5-5-3h5-3-0-0---|

Verse 2
G|--------------------|
D|--------------------|
A|-------------0h2-2--| x4
B|-0--0-3h5--0--------|

G|--------------------|--------------------|
D|--------------------|--------------------|
A|-0-----------0h2-5--|-0-----------0h2-7--|
B|----0-3h5--0--------|----0-3h5--0--------|

G|--------------------|
D|--------------------|
A|-------------0h2-2--| x6
B|-0--0-3h5--0--------|

G|--------------------|--------------------|
D|--------------------|--------------------|
A|-0-----------0h2-5--|-0-----------0h2-7--|
B|----0-3h5--0--------|----0-3h5--0--------|

G|--------------------|
D|--------------------|
A|-------------0h2-2--| x2
B|-0--0-3h5--0--------|

Chorus 2
G|-----------------------|-------------------------|
D|-----------------------|-------------------------|
A|-----------------------|-------------------------|
B|-0--0-3h5--0-10h12-12--|-3-0--0-3h5--0-10h12-12--|

G|-------------------------|-------------------------|
D|-------------------------|-------------------------|
A|-------------------------|-------------------------|
B|-3-0--0-3h5--0-10h12-12--|-3-0--0-3h5--0-10h12-12--|

G|--------------------------|--------------------------|
D|--------------------------|--------------------------|
A|-------------5p2-0----0h2-|-------------5p2-0----0h2-|
B|-0--0-3h5--0-------3------|-0--0-3h5--0-------3------|

G|--------------------------|------------------|
D|--------------------------|------------------|
A|-------------5p2-0----0h2-|-2-0--------------|
B|-0--0-3h5--0-------3------|-----7-5-3-3-0-0--|

Pre Solo (guitar plays 4 bars first)
G|-----------------|-------------------------|
D|-----------------|-------------------------|
A|-----------------|-------------------------| x2
B|-0-0-0-0-0-0-0-0-|-12-12-12-12-12-12-12-12-|

Solo
G|--------------------|----------------------|
D|--------------------|----------------------|
A|-------------0h2-2--|-5-2----5h7----0h2-2--|
B|-0--0-3h5--0--------|------0------0--------|

G|----------------------|-----------------------------|
D|----------------------|-----------------------------|
A|-5-2----5h7----0h2-2--|-5-2----5h7----7b-7-5-7b-7-5-|
B|------0------0--------|------0------0---------------|

G|---------------------|---------------------|
D|---------------------|---------------------|
A|---------------0h2-2-|---------------0h2-2-|
B|-5-5-3h5-3-0-0-------|-5-5-3h5-3-0-0-------|

G|---------------------|-----------------------------|
D|---------------------|-----------------------------|
A|---------------0h2-2-|---------------7b-7-5-7b-7-5-|
B|-5-5-3h5-3-0-0-------|-5-5-3h5-3-0-0---------------|

Bridge (guitar plays without bass for a while)
G|------|------|------|-------------------------|
D|------|------|------|-------------------------|
A|------|------|------|-------------------------|
B|-3----|-0----|-3----|-12-12-12-12-12-12-12-12-|

Last Chorus
G|-----------------------|-------------------------|
D|-----------------------|-------------------------|
A|-----------------------|-------------------------|
B|-0--0-3h5--0-10h12-12--|-3-0--0-3h5--0-10h12-12--|

G|-------------------------|-------------------------|
D|-------------------------|-------------------------|
A|-------------------------|-------------------------|
B|-3-0--0-3h5--0-10h12-12--|-3-0--0-3h5--0-10h12-12--|

G|--------------------------|--------------------------|
D|--------------------------|--------------------------|
A|-------------5p2-0----0h2-|-------------5p2-0----0h2-|
B|-0--0-3h5--0-------3------|-0--0-3h5--0-------3------|

G|--------------------------|------------------|
D|--------------------------|------------------|
A|-------------5p2-0----0h2-|-2-0--------------|
B|-0--0-3h5--0-------3------|-----7-5-3-3-0-0--|

G|--------------------------|------------------|
D|--------------------------|------------------|
A|-------------5p2-0----0h2-|-2-0--------------|
B|-0--0-3h5--0-------3------|-----7-5-3-3-0-0--|

G|--------------------------|------------------|
D|--------------------------|------------------|
A|-------------5p2-0----0h2-|-2-0--------------|
B|-0--0-3h5--0-------3------|-----7-5-3-3-0-0--|


Текст, аккорды и табулатура для песни "Gasoline", исполняет "Audioslave".
Используемые в песне аккорды можно найти в разделе Как брать аккорды. Аккорды для шестиструнной гитары. Другие песни можно найти на нашем сайте, воспользовавшись алфавитным указателем вверху страницы.


Слушать онлайн Gasoline


AudioslaveGasoline на Яндекс.Музыке


 
Ошибка в тексте? Выделите ошибку и нажмите Ctrl+Enter