Tabbed by:THE SANDMAN
Email:[email protected]


Standard Tuning

INTRO 
E --------------------------------------|---------------------------------|
B --------------------------------------|---------------------------------|
G --------------------------------------|---------------------------------|
D --------------------------------------|---------------------------------|
A -----------------------/7-----7-------|-------------7-------------------|
E -12/--0-----0-3h5---0---------0-------|-5-5-3-5-3-0-0-------------------|


E --------------------------------------|---------------------------------|
B --------------------------------------|---------------------------------|
G --------------------------------------|---------------------------------|
D --------------------------------------|---------------------------------|
A ---------------------/7-------7-------|-------------7-------------------|
E --3---0---0-3h5---0-----------0-------|-5-5-3-5-3-0-0-------------------|        


VERSE (Tremolo Pedal Or Delay)
E -----------------------------------|-----------------------------------|
B -----------------------------------|-----------------------------------|
G --------------------------9---8----|---------------------------9---8---|
D –4-----------------4---------------|-4-----------------4---------------|
A –2-----------------2---------------|-2-----------------2---------------|
E -----------------------------------|-----------------------------------|
   

CHORUS (Distortion)
E --------------------------------------|---------------------------------|
B --------------------------------------|---------------------------------|
G --------------------------------------|---------------------------------|
D --------------------------------------|---------------------------------|
A ------------------------7-----7-------|-------------7---~-------~-------|
E -12/--0-----0-3h5---0---------0-------|-5-5-3-5-3-0-0---~-------~-------|


Текст, аккорды и табулатура для песни "Gasoline", исполняет "Audioslave".
Используемые в песне аккорды можно найти в разделе Как брать аккорды. Аккорды для шестиструнной гитары. Другие песни можно найти на нашем сайте, воспользовавшись алфавитным указателем вверху страницы.


Слушать онлайн Gasoline


AudioslaveGasoline на Яндекс.Музыке


 
Ошибка в тексте? Выделите ошибку и нажмите Ctrl+Enter