Artist:Audioslave
Song:Cochise(bass)
Tab By:James Burrell


Intro (come in after a few bars)
G|-----------------|
D|-----------------|
A|-----------------| x24
E|-0-0-0-0-0-0-0-0-|

Verse
G|--------------------------------------|
D|--------------------------------------| x11
A|----5/7---5---5---------5/7 5---------|
E|------------7---3--0----------7-3--0--|

Chorus
G|-------|------------------------|
D|-------|------------------------| x4
A|-5--6--|---7--7-------------5---|
E|-------|--------5-3-0-3-5-7-----|

Bridge  x4          x4
G|------------|------------|----|
D|------------|------------|----|
A|-2----2-----|-7----7-----|-5--|
E|----0----0--|----0----0--|----|

           Im pretty Sure that thats It almost exactly. e-mail me at [email protected]
	    if you think i need to fix anything or if you have any other comments.


Текст, аккорды и табулатура для песни "Cochise", исполняет "Audioslave".
Используемые в песне аккорды можно найти в разделе Как брать аккорды. Аккорды для шестиструнной гитары. Другие песни можно найти на нашем сайте, воспользовавшись алфавитным указателем вверху страницы.


Слушать онлайн Cochise


AudioslaveCochise на Яндекс.Музыке


 
Ошибка в тексте? Выделите ошибку и нажмите Ctrl+Enter