Audioslave - Cochise

Tabbed By Stephen Pang ([email protected])

Intro (come in after a few bars)
G|-----------------|
D|-----------------|
A|-----------------|
E|-0-0-0-0-0-0-0-0-|

Verse
G|--------------------------------|
D|-0/2--------------0/2-----------|
A|-----5-2-5-2-----------5-2------|
E|-------------3-0-----------3-0--|

Chorus
G|-------|------------------------|
D|-0--1--|-2--2-----------------0-|
A|-0--1--|--------------------2---|
E|-------|-------5-3-0--3--5------|

Bridge
G|------------|------------|----|
D|------------|------------|----|
A|-2----2-----|-7----7-----|-5--|
E|----0----0--|----0----0--|----|


Текст, аккорды и табулатура для песни "Cochise", исполняет "Audioslave".
Используемые в песне аккорды можно найти в разделе Как брать аккорды. Аккорды для шестиструнной гитары. Другие песни можно найти на нашем сайте, воспользовавшись алфавитным указателем вверху страницы.


Слушать онлайн Cochise


AudioslaveCochise на Яндекс.Музыке


 
Ошибка в тексте? Выделите ошибку и нажмите Ctrl+Enter