Audioslave - Cochise
====================

ok this is quite an easy song for morello!
this song is pretty good, their first single. 
all the other tabs of this make the intro riff really hard to play!
its basically in one postion, using the E minor pentatonic scale.

Intro - i don't think he uses any real effects just mutes the strings. 
e|-----------------------------------------------------------------------------|
B|-xxxxxxxxxxxxxxxxxxxxxxxxxxxxxxxxxxxxxxxxxxxxxxxxxxxxxxxxxxxxxxx-------------|
G|-xxxxxxxxxxxxxxxxxxxxxxxxxxxxxxxxxxxxxxxxxxxxxxxxxxxxxxxxxxxxxxx-------------|
D|-xxxxxxxxxxxxxxxxxxxxxxxxxxxxxxxxxxxxxxxxxxxxxxxxxxxxxxxxxxxxxxx-------------|
A-------------------------------------------------------------------7~~--------|
E|------------------------------------------------------------------0~~--------|


Intro Riff/Verse
e|-----------------------------------------------------------------------------|
B|-----------------------------------------------------------------------------|
G|-----------------------------------------------------------------------------|
D|-2-0---0---------2--0--------------------------------------------------------|
A|-----2---2------------2------------------------------------------------------|
E|-----------3-0----------3-0--------------------------------------------------|

Last Time Of Verse
e|-----------------------------------------------------------------------------|
B|-----------------------------------------------------------------------------|
G|-----------------------------------------------------------------------------|
D|-2-0---0---------7--8--------------------------------------------------------|
A|-----2---2-------5--6--------------------------------------------------------|
E|-----------3-0---------------------------------------------------------------|

Chorus
e|-----------------------------------------------------------------------------|
B|-----------------------------------------------------------------------------|
G|-----------------------------------------------------------------------------|
D|-9-9---------------0---------------------------------------------------------|
A|-7-7--0--------0-2-----------------------------------------------------------|
E|--------3-0--3---------------------------------------------------------------|

Solo - very very simple solo, tremolo picking, gradual bending.
e|-----------------------------------------------------------------------------|
B|-----------------------------10b---------------------------------------------|
G|-----------------------------------------------------------------------------|
D|---8b------------------------------------------------------------------------|
A|-----------------------------------------------------------------------------|
E|-----------------------------------------------------------------------------|

Interlude Part 1
e|-----------------------------------------------------------------------------|
B|-----------------------------------------------------------------------------|
G|-4-----4---------------------------------------------------------------------|
D|-----------------------------------------------------------------------------|
A|-----2-----2-----------------------------------------------------------------|
E|-----------------------------------------------------------------------------|

Interlude Part 2 - ( ) = Last time only.
e|-----------------------------------------------------------------------------|
B|-----------------------------------------------------------------------------|
G|-----------------------------------------------------------------------------|
D|-2-----2----------(7)--------------------------------------------------------|
A|------------------(5)--------------------------------------------------------|
E|------0-----0----------------------------------------------------------------|


End
e|-----------------------------------------------------------------------------|
B|-----------------------------------------------------------------------------|
G|-----------------------------------------------------------------------------|
D|-9--9/-----------------------------------------------------------------------|
A|-7--7/-----------------------------------------------------------------------|
E|-----------------------------------------------------------------------------|

Order:
Intro
Intro Riff/Verse x11
Last Time Of Verse x1
Chorus x4
Solo x1
Intro Riff/Verse x7
Last Time Of Verse x1
Chorus x8
Interlude Part 1 x4
Interlude Part 2 x4
Chorus (clean) x4
Chorus x8
End x1

email: [email protected]   -   jack lloyd-jones


Текст, аккорды и табулатура для песни "Cochise", исполняет "Audioslave".
Используемые в песне аккорды можно найти в разделе Как брать аккорды. Аккорды для шестиструнной гитары. Другие песни можно найти на нашем сайте, воспользовавшись алфавитным указателем вверху страницы.


Слушать онлайн Cochise


AudioslaveCochise на Яндекс.Музыке


 
Ошибка в тексте? Выделите ошибку и нажмите Ctrl+Enter