Song:		Some Kind of Zombie
Artist:		Audio Adrenaline
Tabbed By:	Tim Fehr

Album: Some Kind Of Zombie, Forefront Records 1997
Words and music by Mark Stuart, Barry Blair, Will
 	McGinniss, and Bob Herdman

Transcribed by Tim Fehr [email protected]

Moderate to Heavy Distortion

(This is written for two guitars, but it isn't
incredibly hard for one)

These are the chords you'll need:

A:  E A D G B E	    F: E A D G B E
    -----------        -----------
    | | | | | |        | | | | | |
    5 7 7 6 5 5        1 3 3 2 1 1
    | | | | | |        | | | | | |

C:  E A D G B E	    G: E A D G B E
    -----------        -----------
    | | | | | |        | | | | | |
    3 3 5 5 5 3        3 5 5 4 3 3
    | | | | | |        | | | | | |

G#: E A D G B E	   F#: E A D G B E
    -----------	       -----------
    | | | | | |        | | | | | |
    4 6 6 5 4 4        2 4 4 3 2 2
    | | | | | |        | | | | | |

Intro:

---5-5-5-x-x-----5-5-5-x-x------1-1-1-x-x-----1-1-1-x-x-|
---5-5-5-x-x-----5-5-5-x-x------1-1-1-x-x-----1-1-1-x-x-|
---6-6-6-x-x-----6-6-6-x-x------2-2-2-x-x-----2-2-2-x-x-|
---7-7-7-x-x-----7-7-7-x-x------3-3-3-x-x-----3-3-3-x-x-|
---7-7-7-x-x-----7-7-7-x-x------3-3-3-x-x-----3-3-3-x-x-|
---5-5-5-x-x-----5-5-5-x-x------1-1-1-x-x-----1-1-1-x-x-|

-x-5-5-5----------------  -x-5-5-5-----------------|
-x-5-5-5----------------  -x-5-5-5-----------------|
-x-6-6-6----------------  -x-6-6-6-----------------|
-x-7-7-7---x-12-13-14---  -x-7-7-7-----x-12-13-14--|
-x-7-7-7---x-12-13-14---  -x-7-7-7-----x-12-13-14--|
-x-5-5-5---x-10-11-12---  -x-5-5-5-----x-10-11-12--|

-x-1-1-1----------------  -x-1-1-1-----------------|
-x-1-1-1----------------  -x-1-1-1-----------------|
-x-2-2-2----------------  -x-2-2-2-----------------|
-x-3-3-3---x-17-16-15---  -x-3-3-3---x-17-16-15----|
-x-3-3-3---x-17-16-15---  -x-3-3-3---x-17-16-15----|
-x-1-1-1---x-15-14-13---  -x-1-1-1---x-15-14-13----|


-x-5-5-5----------------  -x-5-5-5-----------------|
-x-5-5-5----------------  -x-5-5-5-----------------|
-x-6-6-6----------------  -x-6-6-6-----------------|
-x-7-7-7---x-12-13-14---  -x-7-7-7-----x-12-13-14--|
-x-7-7-7---x-12-13-14---  -x-7-7-7-----x-12-13-14--|
-x-5-5-5---x-10-11-12---  -x-5-5-5-----x-10-11-12--|


-x-1-1-1----------------  -x-1-1-1-----------------|
-x-1-1-1----------------  -x-1-1-1-----------------|
-x-2-2-2----------------  -x-2-2-2-----------------|
-x-3-3-3---x-17-16-15---  -x-3-3-3---x-17-16-15----|
-x-3-3-3---x-17-16-15---  -x-3-3-3---x-17-16-15----|
-x-1-1-1---x-15-14-13---  -x-1-1-1---x-15-14-13----|

Verse 1
--------
C		  G
I must have been  confused or vain
F	    G	       C
to let this evil in my brain
C	      G
Lord, did I   enjoy the change
F	 G		A
that you made inside my heart


Pre-Chorus
----------
F   G         A       F       G   A
Oh, here they come    but I'm not afraid
F       G       A       F   G       A
there's no temptation     I can't evade

-x-5-5-5----------------  -x-5-5-5-----------------|
-x-5-5-5----------------  -x-5-5-5-----------------|
-x-6-6-6----------------  -x-6-6-6-----------------|
-x-7-7-7---x-12-13-14---  -x-7-7-7-----x-12-13-14--|
-x-7-7-7---x-12-13-14---  -x-7-7-7-----x-12-13-14--|
-x-5-5-5---x-10-11-12---  -x-5-5-5-----x-10-11-12--|
             Stand up strait             look through the haze

-x-1-1-1----------------  -x-1-1-1-----------------|
-x-1-1-1----------------  -x-1-1-1-----------------|
-x-2-2-2----------------  -x-2-2-2-----------------|
-x-3-3-3---x-17-16-15---  -x-3-3-3---x-17-16-15----|
-x-3-3-3---x-17-16-15---  -x-3-3-3---x-17-16-15----|
-x-1-1-1---x-15-14-13---  -x-1-1-1---x-15-14-13----|
             I began to walk	       through the maze

-x-5-5-5----------------  -x-5-5-5-----------------|
-x-5-5-5----------------  -x-5-5-5-----------------|
-x-6-6-6----------------  -x-6-6-6-----------------|
-x-7-7-7---x-12-13-14---  -x-7-7-7-----x-12-13-14--|
-x-7-7-7---x-12-13-14---  -x-7-7-7-----x-12-13-14--|
-x-5-5-5---x-10-11-12---  -x-5-5-5-----x-10-11-12--|
             Here they come              they're all upon me

-x-1-1-1----------------  -x-1-1-1-----------------|
-x-1-1-1----------------  -x-1-1-1-----------------|
-x-2-2-2----------------  -x-2-2-2-----------------|
-x-3-3-3---x-17-16-15---  -x-3-3-3---x-17-16-15----|
-x-3-3-3---x-17-16-15---  -x-3-3-3---x-17-16-15----|
-x-1-1-1---x-15-14-13---  -x-1-1-1---x-15-14-13----|
             I'm dead to sin         like some kind of zombie

Chorus Part II
---------------
G          G#          A
I hear you speak and I obey     (Some kind of zombie)
G      G#           A
I walk away from the grave    (Some kind of zombie)
G      G#         A
I will never be afraid          (Some kind of zombie)
F         E     A
I gave my life away

Verse 2
--------
C           G            F       G                A
I'm obliged  and obey    I'm enslaved to what you say


Pre-Chorus
----------
F   G         A       F       G   A
Oh, here they come    but I'm not afraid
F       G       A       F   G       A
there's no temptation     I can't evade

-x-5-5-5----------------  -x-5-5-5-----------------|
-x-5-5-5----------------  -x-5-5-5-----------------|
-x-6-6-6----------------  -x-6-6-6-----------------|
-x-7-7-7---x-12-13-14---  -x-7-7-7-----x-12-13-14--|
-x-7-7-7---x-12-13-14---  -x-7-7-7-----x-12-13-14--|
-x-5-5-5---x-10-11-12---  -x-5-5-5-----x-10-11-12--|
             Stand up strait             look through the haze

-x-1-1-1----------------  -x-1-1-1-----------------|
-x-1-1-1----------------  -x-1-1-1-----------------|
-x-2-2-2----------------  -x-2-2-2-----------------|
-x-3-3-3---x-17-16-15---  -x-3-3-3---x-17-16-15----|
-x-3-3-3---x-17-16-15---  -x-3-3-3---x-17-16-15----|
-x-1-1-1---x-15-14-13---  -x-1-1-1---x-15-14-13----|
             I began to walk	       through the maze

-x-5-5-5----------------  -x-5-5-5-----------------|
-x-5-5-5----------------  -x-5-5-5-----------------|
-x-6-6-6----------------  -x-6-6-6-----------------|
-x-7-7-7---x-12-13-14---  -x-7-7-7-----x-12-13-14--|
-x-7-7-7---x-12-13-14---  -x-7-7-7-----x-12-13-14--|
-x-5-5-5---x-10-11-12---  -x-5-5-5-----x-10-11-12--|
             Here they come              they're all upon me

-x-1-1-1----------------  -x-1-1-1-----------------|
-x-1-1-1----------------  -x-1-1-1-----------------|
-x-2-2-2----------------  -x-2-2-2-----------------|
-x-3-3-3---x-17-16-15---  -x-3-3-3---x-17-16-15----|
-x-3-3-3---x-17-16-15---  -x-3-3-3---x-17-16-15----|
-x-1-1-1---x-15-14-13---  -x-1-1-1---x-15-14-13----|
             I'm dead to sin         like some kind of zombie

Chorus Part II
---------------
G          G#          A
I hear you speak and I obey     (Some kind of zombie)
G         G#           A
I walked away from the grave    (Some kind of zombie)
G      G#         A
I will never be afraid          (Some kind of zombie)
F         E     A
I gave my life away

Solo
-------
(only uses 1st and 2nd strings)
The 2nd guitar plays some other chords in here...
I didn't include them for this arrangement.


E---12-10----10------12--10----------12-10----10--13-15------|
B---------12------12-------1310------------13----------------|
G------------------------------------------------------------|
D------------------------------------------------------------|
A------------------------------------------------------------|
E------------------------------------------------------------|J

E---12-10----10-------12--10---------12-10----10--15-17-----|
B---------13-------12-------1310-----------13---------------|
G-----------------------------------------------------------|
D-----------------------------------------------------------|
A-----------------------------------------------------------|
E-----------------------------------------------------------|J

---5-5-5-x-x-----5-5-5-x-x------1-1-1-x-x-----1-1-1-x-x-|
---5-5-5-x-x-----5-5-5-x-x------1-1-1-x-x-----1-1-1-x-x-|
---6-6-6-x-x-----6-6-6-x-x------2-2-2-x-x-----2-2-2-x-x-|
---7-7-7-x-x-----7-7-7-x-x------3-3-3-x-x-----3-3-3-x-x-|
---7-7-7-x-x-----7-7-7-x-x------3-3-3-x-x-----3-3-3-x-x-|
---5-5-5-x-x-----5-5-5-x-x------1-1-1-x-x-----1-1-1-x-x-|

-x-5-5-5----------------  -x-5-5-5-----------------|
-x-5-5-5----------------  -x-5-5-5-----------------|
-x-6-6-6----------------  -x-6-6-6-----------------|
-x-7-7-7---x-12-13-14---  -x-7-7-7-----x-12-13-14--|
-x-7-7-7---x-12-13-14---  -x-7-7-7-----x-12-13-14--|
-x-5-5-5---x-10-11-12---  -x-5-5-5-----x-10-11-12--|
             Stand up strait             Look through the haze

-x-1-1-1----------------  -x-1-1-1-----------------|
-x-1-1-1----------------  -x-1-1-1-----------------|
-x-2-2-2----------------  -x-2-2-2-----------------|
-x-3-3-3---x-17-16-15---  -x-3-3-3---x-17-16-15----|
-x-3-3-3---x-17-16-15---  -x-3-3-3---x-17-16-15----|
-x-1-1-1---x-15-14-13---  -x-1-1-1---x-15-14-13----|
             I began to walk		through the maze

-x-5-5-5----------------  -x-5-5-5-----------------|
-x-5-5-5----------------  -x-5-5-5-----------------|
-x-6-6-6----------------  -x-6-6-6-----------------|
-x-7-7-7---x-12-13-14---  -x-7-7-7-----x-12-13-14--|
-x-7-7-7---x-12-13-14---  -x-7-7-7-----x-12-13-14--|
-x-5-5-5---x-10-11-12---  -x-5-5-5-----x-10-11-12--|
             Here they come               They're all upon me

-x-1-1-1----------------  -x-1-1-1-----------------|
-x-1-1-1----------------  -x-1-1-1-----------------|
-x-2-2-2----------------  -x-2-2-2-----------------|
-x-3-3-3---x-17-16-15---  -x-3-3-3---x-17-16-15----|
-x-3-3-3---x-17-16-15---  -x-3-3-3---x-17-16-15----|
-x-1-1-1---x-15-14-13---  -x-1-1-1---x-15-14-13----|
	       I'm dead to sin         like some kind of zombie

Chorus Part II
---------------
G          G#          A
I hear you speak and I obey     (Some kind of zombie)
G      G#           A
I walk away from the grave    (Some kind of zombie)
G      G#         A
I will never be afraid          (Some kind of zombie)
F         E     A
I gave my life away
G      G#         A
I will never be afraid          (Some kind of zombie)
G      G#         A
I will never be afraid          (Some kind of zombie)
G      G#         A
I will never be afraid          (Some kind of zombie)
F         E     A

That's how the real song goes.

Comments, Questions or maybe even Changes (which I highly doubt) send em to
[email protected] yes that is my for real address.


Текст, аккорды и табулатура для песни "Some Kind Of Zombie", исполняет "Audio Adrenaline".
Используемые в песне аккорды можно найти в разделе Как брать аккорды. Аккорды для шестиструнной гитары. Другие песни можно найти на нашем сайте, воспользовавшись алфавитным указателем вверху страницы.


 
Ошибка в тексте? Выделите ошибку и нажмите Ctrl+Enter