Song: Some kind of zombie
CD: Some kind of zombie
Group: Audio Adrenaline
Record Co: Forefront
Transcribe by: Cameron Brewer
e-mail: [email protected]

Any mistakes I did please e-mail and tell me what they are.


Intro:

G--------------------------------------------------------
D--------------------------------------------------------
A--------------------------------------------------------  
E-5-517-17--5-517-17--1-113-13--1-113-13---

G------------------------------------------------------------
D------------------------------------------------------------
A------------------------------------------------------------
E-5-517-17--5-517-17--1-113-13--1-113-13--5---     

G------------------------------------------------
D------------------------------------------------
A-3-3---------------3-3-3-3---------------0---
E-------3-3--1--3-------------3-3--1--3-------


Bridge:

G-----------------------------------
D-----------------------------------
A-----------------------------------
E-3-0-5--3-0-5--3-0-5--3-0-5---


Pre Chorus:

G--------------------------------------------------------
D--------------------------------------------------------
A--------------------------------------------------------
E-5-517-17--5-517-17--1-113-13--1-113-13---

G--------------------------------------------------------
D--------------------------------------------------------
A--------------------------------------------------------
E-5-517-17--5-517-17--1-113-13--1-113-13---

Chorus:

G---------------------------------------------------------------------------------------------
D---------------------------------------------------------------------------------------------
A---------------------------------------------------------------------------------------------
E-3-4-5-x-x-x-x-x-x-x-x--3-4-5-x-x-x-x-x-x-x-x--3-4-5-x-x-x-x-x-x-x-x--1-0-5---


Bridge:

G--------------------------------------------------
D--------------------------------------------------
A-3-3-------------0-------------------------------
E-------3-3-1-3--------1-0-5--1-0-5--1-0-5---


Chorus:

G--------------------------------------------------------
D--------------------------------------------------------
A--------------------------------------------------------
E-5-517-17--5-517-17--1-113-13--1-113-13---

G--------------------------------------------------------
D--------------------------------------------------------
A--------------------------------------------------------
E-5-517-17--5-517-17--1-113-13--1-113-13---


(Play during the guitar solo)

G---------------------------------------------------------------------
D---------------------------------------------------------------------
A---------------------------------------------------------------------
E-5-5-5--5-5-5--5-5-5--5-5-5-5--5-5-5--5-5-5--5-5-5--5-5---


Chorus:

G--------------------------------------------------------
D--------------------------------------------------------
A--------------------------------------------------------
E-5-517-17--5-517-17--1-113-13--1-113-13---

G--------------------------------------------------------
D--------------------------------------------------------
A--------------------------------------------------------
E-5-517-17--5-517-17--1-113-13--1-113-13---


Chrous:

G-------------------------------------------------------------------------------------
D-------------------------------------------------------------------------------------
A-------------------------------------------------------------------------------------
E-3-4-5-x-x-x-x-x-x-x-x--3-4-5-x-xx-x-x-x-x-x--3-4-5-x-x-x-x-x-x-x-x---

G---------------------------------------------------------------------
D---------------------------------------------------------------------
A---------------------------------------------------------------------
E-3-4-5-x-x-x-x-x-x-x-x--3-4-5-x-x-x-x-x-x-x-x--3-4-5-x-x-xx-x-x-x-x--

G-------------------------------------
D-------------------------------------
A-------------------------------------
E-3-4-5-x-x-x-x-x-x-x-x-1-0-5---

(play the A note ontell it fades away)




Текст, аккорды и табулатура для песни "Some Kind Of Zombie", исполняет "Audio Adrenaline".
Используемые в песне аккорды можно найти в разделе Как брать аккорды. Аккорды для шестиструнной гитары. Другие песни можно найти на нашем сайте, воспользовавшись алфавитным указателем вверху страницы.


 
Ошибка в тексте? Выделите ошибку и нажмите Ctrl+Enter