if you like this or i messed up email me at [email protected]

[email protected]------------|
B----------------------------------------------------------------------------|
G------------------------------------------9---------------------------------|
D----------------7----------7--6-----------9---------------------------------|
A--4-------------7----------7--7---9/11--------------------------------------|
E--5---5---7/9--------7/9----------------------------------------------------|

e----------------------------------------------------------------------------|
B----------------------------------------------------------------------------|
G-----------------------------------------------------9----------9-----------|
D----------------7----X--X--X----------7--6-----------9----------9-----------|
A--4-------------7----X--X--X----------7--7----9/11--------9/11--------------|
E--5---5---7/9--------X--X--X----7/9-----------------------------------------|
                                 -OR-

INTRO:
A E (x4)

VERSE 1:
A                      F#m              D                   F#m  E
I don't know where you lay your head or where you call your home.
A                      F#m               D                     F#m   E
I don't know where you eat your meals or where you talk on the phone.
A                   F#m           D           F#m  E
I don't know if you got a cook, a butler or a maid,
A                   F#m               D              F#m E
I don't know if you got a yard with a hammock on the shade.

A E

A                   F#m            D              F#m  E
I don't know if you got a shelter, say a place to hide.
A                   F#m                  D            F#m     E
I don't know if you live with friends in whom you can confide.
A                   F#m           D              F#m E
I don't know if you got a family, say a mom or a dad.
A                        F#m                D                F#m E
I don't know if you feel love at all, but I bet you wish you had.

CHORUS:
A         E           D     A
Come, and go with me, to my Father's house.
A         E           D     E        A
Come, and go with me, to my Father's house.
     A    F#m E           D                A
It's big, big house, with lots and lots of room,
   A   F#m E           D                A
A big, big table, with lots and lots of food,
   A   F#m E           D               A
A big, big yard, where we can play football
   A   F#m E      D                A
A big, big house, it's my Father's house.

E A E

VERSE 2:
A               F#m                 D              F#m E
All I know is a big ole house, with rooms for everyone.
A             F#m                 D               F#m E
All I know is lots of land, where we can play and run.
A             F#m                D              F#m E
All I know is you need love, and I've got a family.
A                    F#m           D                 F#m E
All I know is you're all alone, so why not come with me?

CHORUS (x4)


Текст, аккорды и табулатура для песни "Big House", исполняет "Audio Adrenaline".
Используемые в песне аккорды можно найти в разделе Как брать аккорды. Аккорды для шестиструнной гитары. Другие песни можно найти на нашем сайте, воспользовавшись алфавитным указателем вверху страницы.


 
Ошибка в тексте? Выделите ошибку и нажмите Ctrl+Enter