#---------------------------------PLEASE NOTE----------------------------------#
#This file is the author's own work and represents their interpretation of the #
#song. You may only use this file for private study, scholarship, or research. #
#------------------------------------------------------------------------------#
#------------Created with Taborama Tab Creator-----www.taborama.com------------#
#------------------------------------------------------------------------------#

Title: Bandwagon
Artist: aTTiley
Album: TBA

Instrument: 6 String Guitar

Tabbed by: Joe Hill ([email protected])

Tuning: Standard (E A D G B E)

Awesome song

INTRO:
E|-3----5----5----7-5-3----------------------------------------------||
B|-3----5----5----7-5-3----------------------------------------------||
G|-3----7----5----7-5-3--x2------------------------------------------||
D|-5----7----7----9-7-5----------------------------------------------||
A|-5----5----7----9-7-5----------------------------------------------||
E|-3----5----5----7-5-3----------------------------------------------||
  Clean.
INTRO PT. 2
E|-------------------------------------------------------------------||
B|-------------------------------------------------------------------||
G|---------------------7---------------------------------------------||
D|---------------5-----7-x6--7-----9---------------------------------||
A|---------------5-x6--5-----7-x6--9-x6------------------------------||
E|-*Pick-Slide*--3-----------5-----7---------------------------------||
  Come in with a pick slide, lots of distortion, and a loud volume.
  Repeat the entire Intro Pt. 2 (including the pick slide) once.
VERSE:
E|--------------------------------------------------*----------------||
B|-------------R------------------------------------*----------------||
G|---R-------7-E-77-7-7--R--------------------------*----------------||
D|-5-E-55-5-57-S-77-7-77-E-77-7-7--9-----7-----5----*-5-----7--------||
A|-5-S-55-5-55-T-55-5-57-S-77-7-7--9-x5--7-x5--5-x5-*-5-x8--7-x6-----||
E|-3-T-33-3-3----------5-T-55-5-5--7-----5-----3----*-3-----5--------||
  Repeat the verse once, and on the repeat play the end like this.

  NOTE - The first power chord of the change is the same power chord
         at the end of the regular verse, but played for a little
         longer.

CHORUS:
E|-------------------------------------------------------------------||
B|-------------------------------------------------------------------||
G|-------7-----------------------------------------------------------||
D|-5-----7-x8--7-----10----------------------------------------------||
A|-5-x8--5-----7-x8--10-x8-------------------------------------------||
E|-3-----------5-----8-----------------------------------------------||
  Repeat this once, then go directly to the verse part immediately
  after you finish the second time through.
BRIDGE:
E|-------------------------------------------------------------------||
B|-------------------------------------------------------------------||
G|-------------------------------------------------------------------||
D|-------------------------------------------------------------------||
A|---------55555555--------------------x2----------------------------||
E|-33333333--------55555555-7777-88-77-------------------------------||
  Palm muted.
BRIDGE PT. 2
E|-------------------------------------------------------------------||
B|-------------R-----------------------------------------------------||
G|---R---------E---------R-------------------------------------------||
D|---E---------S---------E-------------------------------------------||
A|---S-------5-T-55-5-5--S-------------------------------------------||
E|-3-T-33-3-3----------5-T-55-5-5-77777-55555-33333------------------||
  Palm muted. After this repeat the Intro Pt. 1, and repeat once as
  you did the first time.
ENDING:
E|----------------||
B|----------------||
G|----------------||
D|-5--------------||
A|-5--------------||
E|-3--------------||
  End on this chord.


Текст, аккорды и табулатура для песни "Bandwagon", исполняет "Attiley".
Используемые в песне аккорды можно найти в разделе Как брать аккорды. Аккорды для шестиструнной гитары. Другие песни можно найти на нашем сайте, воспользовавшись алфавитным указателем вверху страницы.


 
Ошибка в тексте? Выделите ошибку и нажмите Ctrl+Enter