LIVING EACH DAY LIKE YOURE ALREADY DEAD    (ATREYU)


D|----------------------------------------------------------------|
A|----------------------------------------------------------------|
F|-----7----7----7----7----7-7------------------------------------|
C|-00----00---00---00---00-----00000-00000-00000-00000------------|
G|-00--5-00-5-00-5-00-5-00-5-5-00000-00000-00000-00000------------|
C|-00----00---00---00---00-----00000-00000-00000-00000------------|
   ..    ..   ..   ..   ..     ..... ..... ..... .....

D|----------------------------------------------------------------|
A|----------------------------------------------------------------|
F|-7----7----7----7----7/9--1010101010-5/7------------------------|
C|---00---00---00---00--------------------------------------------|
G|-5-00-5-00-5-00-5-00-5/7---8-8-8-8-8-3/5------------------------|
C|---00---00---00---00--------------------------------------------|
     ..   ..   ..   .. 
D|----------------------------------------------------------------|
A|----------------------------------------------------------------|
F|-----7----7----7----7-7-----------------------------------------|
C|--00---00---00---00-----00000-00000-00000-00000-----------------|
G|--00-5-00-5-00-5-00-5-5-00000-00000-00000-00000-----------------|
C|--00---00---00---00-----00000-00000-00000-00000-----------------|
    ..   ..   ..   ..     ..... ..... ..... .....
D|----------------------------------------------------------------|
A|----------------------------------------------------------------|
F|-7----7----7----7----7/9--101010101010-9/101010-7/9-9-9/5-5/7---|
C|---00---00---00---00--------------------------------------------|
G|-5-00-5-00-5-00-5-00-5/7---8-8-8-8-8-8-7/-8-8-8-5/7-7-7/3-3/5---|
C|---00---00---00---00--------------------------------------------|
     ..   ..   ..   ..

D|----------------------------------------------------------------|
A|----------------------------------------------------------------|
F|----------------------------------------------------------------|
C|-0000000000000-0------------------------------------------------|
G|-0000000000000-0------------------------------------------------|
C|-0000000000000-0------------------------------------------------|
   .............

  play this 4 times              dont play the last note on the final refrain   
D|---------------------------------------------------------------|
A|---------------------------------------------------------------|
F|-------------------------------5/7-----------------------------|
C|-000-000-000-000-000--6P5-3333-----0---------------------------|
G|-000-000-000-000-000--6P5-3333-3/5-0---------------------------|
C|-000-000-000-000-000--6P5-3333-----0---------------------------|
   ... ... ... ... ...

  play twice					    end with this
D|-------------------------------------------------|-------------|
A|-------------------------------------------------|-------------|
F|-7-7-7-7-7-7-3-3-3-3-3-3-------------5-5-5-5-5-5-|-------------|
C|-7-7-7-7-7-7-3-3-3-3-3-3-3-3-3-3-3-3-3-3-3-3-3-3-|-0-----------|
G|-5-5-5-5-5-5-1-1-1-1-1-1-3-3-3-3-3-3-3-3-3-3-3-3-|-0-----------|
C|-------------------------3-3-3-3-3-3-------------|-0-----------|

  play this twice
D|--------------------------------------------------------|
A|--------------------------------------------------------|
F|-------------------------------5/7----------------------|
C|-000-000-000-000-000--6P5-3333-----0--------------------|
G|-000-000-000-000-000--6P5-3333-3/5-0--------------------|
C|-000-000-000-000-000--6P5-3333-----0--------------------|
   ... ... ... ... ...  

  play twice
D|--------------------------------------------------------|
A|--------------------------------------------------------|
F|------------------------------------------------5/7-----|
C|-000-000-000-000-000--6P5-3-333-333-333-333-333-----0---|
G|-000-000-000-000-000--6P5-3-333-333-333-333-333-3/5-0---|
C|-000-000-000-000-000--6P5-3-333-333-333-333-333-----0---|
   ... ... ... ... ...        ... ... ... ... ...

  play twice
D|--------------------------------------------------------|
A|--------------------------------------------------------|
F|-----------------0-------0-------0-------0--------------|
C|-0-0-0-0-0-0-0-0--43210---43210---43210---43210---------|
G|-0-0-0-0-0-0-0-0-------43------43------43------43-------|
C|-0-0-0-0-0-0-0-0----------------------------------------|

  play twice	
D|--------------------------------------------------------|
A|--------------------------------------------------------|
F|-----------------0--------------00--------------0-------|
C|-0-0-0-0-0-0-0-0--43210----01234--43210----01234--------|
G|-0-0-0-0-0-0-0-0-------4334------------4334-------------|
C|-0-0-0-0-0-0-0-0----------------------------------------|

D|-----------------|------------|
A|-----------------|------------|
F|-----------------|------------|
C|-0-0-0-0-0-0-0-0-|-0----0-----|
G|-0-0-0-0-0-0-0-0-|-0----0-----|
C|-0-0-0-0-0-0-0-0-|-0----0-----|


  play this 24 times
D|-10---------------------------|
A|----10-10-12-12-10------------|
F|-------------------12-11------|
C|------------------------------|
G|------------------------------|
C|------------------------------|
 
 play this four times
D|-10---------------------------|
A|----10-12---------------------|
F|----------11------------------|
C|------------------------------|
G|------------------------------|
C|------------------------------|

D|---------|
A|---------|
F|---------|
C|-00-000--|
G|-00-000--|
C|-00-000--|
   .. ...


Текст, аккорды и табулатура для песни "Living Each Day Like Youre Already Dead", исполняет "Atreyu".
Используемые в песне аккорды можно найти в разделе Как брать аккорды. Аккорды для шестиструнной гитары. Другие песни можно найти на нашем сайте, воспользовавшись алфавитным указателем вверху страницы.


 
Ошибка в тексте? Выделите ошибку и нажмите Ctrl+Enter