LIVING EACH DAY LIKE YOUR ALREADY DEAD  (ATREYU)

this is the other part to living each day like your already dead.



D|-------------------------------------------------------------------------------------|
A|-------------------------------------------------------------------------------------|
F|-------------------------------------------------------------------------------------|
C|-00--0-00-0-00-3-00-5-00-5H7P5-00000-00000-00000-00000-------------------------------|
G|-00--5-00-5-00-5-00-5-00-5-----00000-00000-00000-00000-------------------------------|
C|-00----00---00---00---00-------00000-00000-00000-00000-------------------------------|
   ..    ..   ..   ..   ..       ..... ..... ..... .....

D|-------------------------------------------------------------------------------------|
A|-------------------------------------------------------------------------------------|
F|-------------------------------101010101010------------------------------------------|
C|-00--0-00-0-00-3-00-5-00-5H7P5-------------------------------------------------------|
G|-00--5-00-5-00-5-00-5-00-5------8-8-8-8-8-8------------------------------------------|
C|-00----00---00---00---00-------------------------------------------------------------|
   ..    ..   ..   ..   ..  

D|-------------------------------------------------------------------------------------|
A|-------------------------------------------------------------------------------------|
F|-------------------------------------------------------------------------------------|
C|-0-00-0-00-3-00-5-00-5H7P5-00000-00000-00000-00000-----------------------------------|
G|-5-00-5-00-5-00-5-00-5-----00000-00000-00000-00000-----------------------------------|
C|---00---00---00---00-------00000-00000-00000-00000-----------------------------------|
     ..   ..   ..   ..       ..... ..... ..... .....   

D|-------------------------------------------------------------------------------------|
A|-------------------------------------------------------------------------------------|
F|-------------------------------101010101010-9/101010---------------------------------|
C|-00--0-00-0-00-3-00-5-00-5H7P5-----------------------7-3-0---------------------------|
G|-00--5-00-5-00-5-00-5-00-5------8-8-8-8-8-8-7/-8-8-8-7-3-0---------------------------|
C|-00----00---00---00---00-----------------------------7-3-0---------------------------|
   ..    ..   ..   ..   ..    


D|-------------------------------------------------------------------------------------|
A|-------------------------------------------------------------------------------------|
F|-------------------------------------------------------------------------------------|
C|-0000000000000-0---------------------------------------------------------------------|
G|-0000000000000-0---------------------------------------------------------------------|
C|-0000000000000-0---------------------------------------------------------------------|
   .............

  play this 4 times              dont play the last note on the final refrain   
D|-------------------------------------------------------------------------------------|
A|-------------------------------------------------------------------------------------|
F|-------------------------------5/7---------------------------------------------------|
C|-000-000-000-000-000--6P5-3333-----0-------------------------------------------------|
G|-000-000-000-000-000--6P5-3333-3/5-0-------------------------------------------------|
C|-000-000-000-000-000--6P5-3333-----0-------------------------------------------------|
   ... ... ... ... ...

  play three times        play once
D|----------------------|--------------------------------------------------------------|
A|----------------------|--------------------------------------------------------------|
F|-14-9-10-1010-101010--|-14-15-12-121212----------------------------------------------|
C|----------------------|--------------------------------------------------------------|
G|-12-7--8--8-8--8-8-8--|-12-13-10-101010----------------------------------------------|
C|----------------------|--------------------------------------------------------------|
     
 play three times        play once	   end with this
D|----------------------|-----------------|--------------------------------------------|
A|----------------------|-----------------|--------------------------------------------|
F|-14-9-10-1010-101010--|-14-15-12-121212-|--------------------------------------------|
C|----------------------|-----------------|-0------------------------------------------|
G|-12-7--8--8-8--8-8-8--|-12-13-10-101010-|-0------------------------------------------|
C|----------------------|-----------------|-0------------------------------------------|


 play this twice
D|-------------------------------------------------------------------------------------|
A|-------------------------------------------------------------------------------------|
F|-------------------------------5/7---------------------------------------------------|
C|-000-000-000-000-000--6P5-3333-----0-------------------------------------------------|
G|-000-000-000-000-000--6P5-3333-3/5-0-------------------------------------------------|
C|-000-000-000-000-000--6P5-3333-----0-------------------------------------------------|
   ... ... ... ... ...  

  play twice
D|-------------------------------------------------------------------------------------|
A|-------------------------------------------------------------------------------------|
F|------------------------------------------------5/7----------------------------------|
C|-000-000-000-000-000--6P5-3-333-333-333-333-333-----0--------------------------------|
G|-000-000-000-000-000--6P5-3-333-333-333-333-333-3/5-0--------------------------------|
C|-000-000-000-000-000--6P5-3-333-333-333-333-333-----0--------------------------------|
   ... ... ... ... ...        ... ... ... ... ...

  play once
D|-------------------------------------------------------------------------------------|
A|-----------------3210----3210----3210----3210----------------------------------------|
F|---------------------3210----3210----3210----3210------------------------------------|
C|-0-0-0-0-0-0-0-0---------------------------------------------------------------------|
G|-0-0-0-0-0-0-0-0---------------------------------------------------------------------|
C|-0-0-0-0-0-0-0-0---------------------------------------------------------------------|

  play twice
D|-------------------------------------------------------------------------------------|
A|-----------------3210----3210--------0123----0123------------------------------------|
F|---------------------3210----32100123----0123----------------------------------------|
C|-0-0-0-0-0-0-0-0---------------------------------------------------------------------|
G|-0-0-0-0-0-0-0-0---------------------------------------------------------------------|
C|-0-0-0-0-0-0-0-0---------------------------------------------------------------------|

D|-----------------|-------------------------------------------------------------------|
A|-----------------|-------------------------------------------------------------------|
F|-----------------|-------------------------------------------------------------------|
C|-0-0-0-0-0-0-0-0-|-0----0----0----0--------------------------------------------------|
G|-0-0-0-0-0-0-0-0-|-0----0----0----0--------------------------------------------------|
C|-0-0-0-0-0-0-0-0-|-0----0----0----0--------------------------------------------------|

D|-------------------------------------------------------------------------------------|
A|-------------------------------------------------------------------------------------|
F|-------------------------------------------------------------------------------------|
C|-0000000000000000-5555555555555555-2222222222222222-5555555555555555-----------------|
G|-0000000000000000-5555555555555555-2222222222222222-5555555555555555-----------------|
C|-0000000000000000-5555555555555555-2222222222222222-5555555555555555-----------------|

D|-------------------------------------------------------------------------------------|
A|-------------------------------------------------------------------------------------|
F|-------------------------------------------------------------------------------------|
C|-0000-0000-0000-0000-5555-5555-5555-5555-2222-2222-2222-2222-5555-5555-5555-5555-----|
G|-0000-0000-0000-0000-5555-5555-5555-5555-2222-2222-2222-2222-5555-5555-5555-5555-----|
C|-0000-0000-0000-0000-5555-5555-5555-5555-2222-2222-2222-2222-5555-5555-5555-5555-----|
   ....      ....      ....      ....      ....      ....      ....      .... 

  play this four times
D|-------------------------------------------------------------------------------------|
A|-------------------------------------------------------------------------------------|
F|-14-11-11-12-12-11-------------------------------------------------------------------|
C|-------------------14-12-------------------------------------------------------------|
G|-------------------------------------------------------------------------------------|
C|-------------------------------------------------------------------------------------|

  play this four times
D|-------------------------------------------------------------------------------------|
A|-14-12-10-7--------------------------------------------------------------------------|
F|-------------------------------------------------------------------------------------|
C|-------------------------------------------------------------------------------------|
G|-------------------------------------------------------------------------------------|
C|-------------------------------------------------------------------------------------|

D|-------------------------------------------------------------------------------------|
A|-------------------------------------------------------------------------------------|
F|-------------------------------------------------------------------------------------|
C|-00-000------------------------------------------------------------------------------|
G|-00-000------------------------------------------------------------------------------|
C|-00-000------------------------------------------------------------------------------|
   .. ...


Текст, аккорды и табулатура для песни "Living Each Day Like Youre Already Dead", исполняет "Atreyu".
Используемые в песне аккорды можно найти в разделе Как брать аккорды. Аккорды для шестиструнной гитары. Другие песни можно найти на нашем сайте, воспользовавшись алфавитным указателем вверху страницы.


 
Ошибка в тексте? Выделите ошибку и нажмите Ctrl+Enter