Atreyu
Butterfly Kisses and Suicide Notes
Deanne the Arsonist


Tabbed by: Devon Marquis
Posted: March 18, 2004
Email: [email protected]
AIM: popnshroomz

Tuning: CGCFAD
     *  Palm Mute
     ~  Tremolo Pick

This tab should be almost flawless.  Listen to the song for timing and rhythm.
Atreyu is a two guitar band, so tabbing their songs by ear can be gruesome at times.
Please rate this tab and email/IM me if you have questions or comments.  Cheers!  

Intro
1|--------------------------------------------------------|
2|--------------------------------------------------------|
3|--0000-12000-12000-12000--------------------------------|
4|--------------------------------------------------------|
5|--------------------------------------------------------|
6|--------------------------------------------------------|
    ~~~~ ~~~~~ ~~~~~ ~~~~~

1|--------------------------------------------------------|
2|--------------------------------------------------------|
3|--------------------------------------------------------|
4|--5------1------8------3--------------------------------|
5|--5------1------8------3--------------------------------|
6|--5------1------8------3--------------------------------|


Chorus - 2x - 
1|------------------------------------------------------------|
2|------------------------------------------------------------|
3|-----12-12-10-8-5-7-8-7-------------------------------------|
4|--------------------------------5---5-7-8-10-8-7-3-5--------|
5|------------------------------------------------------------|
6|------------------------------------------------------------|

1|--------------------------------------------------------|
2|------------------------------11-10---------------------|
3|--12-12-10-8-10-12-10-----------------12-10-12----------|
4|--------------------------------------------------------|
5|--------------------------------------------------------|
6|--------------------------------------------------------|

Verse 1 - 2x
1|--------------------------------------------------------|
2|--------------------------------------------------------|
3|--------------------------------------------------------|
4|--5-5--0-5-5--0-5-5--0-5-5--0-1-1--0-1-1--0-1-1--0-1-1--|
5|--5-5--0-5-5--0-5-5--0-5-5--0-1-1--0-1-1--0-1-1--0-1-1--|
6|--5-5--0-5-5--0-5-5--0-5-5--0-1-1--0-1-1--0-1-1--0-1-1--|

1---------------------------------------------------------|
2---------------------------------------------------------|
3--------------------------------77777777-88888888--------|
4--0-3-3--0-3-3--0-3-3--0-3-3--0-xxxxxxxx-xxxxxxxx--------|
5--0-3-3--0-3-3--0-3-3--0-3-3--0-55555555-66666666--------|
6--0-3-3--0-3-3--0-3-3--0-3-3--0-00000000-00000000--------|


Chorus - 1x
1|-------------------------------------------------------|
2|-------------------------------------------------------|
3|-----12-12-10-8-5-7-8-7--------------------------------|
4|---------------------------5---5-7-8-10-8-7-3-5--------|
5|-------------------------------------------------------|
6|-------------------------------------------------------|

1|--------------------------------------------------------|
2|--------------------------------11-10-------------------|
3|--12-12-10-8-10-12-10-----------------12-10-12----------|
4|--------------------------------------------------------|
5|--------------------------------------------------------|
6|--------------------------------------------------------|


Verse - 2x, but play alternate ending marked by double asterisk
1|--------------------------------------------------------|
2|--------------------------------------------------------|
3|--------------------------------------------------------|
4|--5-5--0-5-5--0-5-5--0-5-5--0-1-1--0-1-1--0-1-1--0-1-1--|
5|--5-5--0-5-5--0-5-5--0-5-5--0-1-1--0-1-1--0-1-1--0-1-1--|
6|--5-5--0-5-5--0-5-5--0-5-5--0-1-1--0-1-1--0-1-1--0-1-1--|

1---------------------------------------------------------|
2---------------------------------------------------------|
3--------------------------------77777777-88888888--------|
4--0-3-3--0-3-3--0-3-3--0-3-3--0-xxxxxxxx-xxxxxxxx--------|
5--0-3-3--0-3-3--0-3-3--0-3-3--0-55555555-66666666--------|
6--0-3-3--0-3-3--0-3-3--0-3-3--0-00000000-00000000--------|
                                                    **
Alternate Verse Ending - 1x  Remember to palm mute!
1|--------------------------------------------------------|
2|--------------------------------------------------------|
3|--------------------------------------------------------|
4|--3-3-3-3-3-3-3-3-4-4-4-4-4-4-4----------------|
5|--3-3-3-3-3-3-3-3-4-4-4-4-4-4-4----------------|
6|--3-3-3-3-3-3-3-3-4-4-4-4-4-4-4----------------|
      * * *   * * *   * * *            

Verse 2 - 4x
1|-----------------|----------------|------------------------|
2|-----------------|----------------|------------------------|
3|-----5--7--------|----------------|------------------------|
4|--7--7--8--7-----|----7---10-8-7--|---7-----8-7------------|
5|--8--------8-----|--5---5---------|--5--5-------8----------|
6|-----------------|----------------|------------------------|


Bridge - 2x
1|--------------------------------------------------------|
2|--------------------------------------------------------|
3|--------------------------------------------------------|
4|--6666666666666666-1111111111111111-4444444444444444--0-|
5|--6666666666666666-1111111111111111-4444444444444444--0-|
6|--6666666666666666-1111111111111111-4444444444444444--0-|


Finger Tapping - I had a little trouble with this. Play around with it
and you might get it right.  The best thing to do is listen and play at the same time.
1|-------------|-------------|-----------------|----------------|
2|-------------|-------------|-----------------|----------------|
3|----456------|----789------|---- 121314------|--151617--------|
4|-------------|-------------|-----------------|----------------|
5|-------------|-------------|-----------------|----------------|
6|-------------|-------------|-----------------|----------------|
       8x            8x                16x              8x   

Verse 2 - 4x
1|-----------------|----------------|------------------------|
2|-----------------|----------------|------------------------|
3|-----5--7--------|----------------|------------------------|
4|--7--7--8--7-----|----7---10-8-7--|---7-----8-7------------|
5|--8--------8-----|--5---5---------|--5--5-------8----------|
6|-----------------|----------------|------------------------|

This is a pretty cool song by Atreyu.  Probably the hardest thing about it is keeping up
with the rhythm.  Other than that, it's fairly easy if you've benn playin for a while.
Don't forget to rate my tab.  I can tab by ear so anything you special request by email,
I'll see what I can do.  The only catch is for one of my tabs, I want one of your tabs
(they have to be accurate and from a band I like).   This is my first tab posting on UG's
website, but I'll have a lot more later so check back soon.  Laterz


Текст, аккорды и табулатура для песни "Deanne The Arsonist", исполняет "Atreyu".
Используемые в песне аккорды можно найти в разделе Как брать аккорды. Аккорды для шестиструнной гитары. Другие песни можно найти на нашем сайте, воспользовавшись алфавитным указателем вверху страницы.


 
Ошибка в тексте? Выделите ошибку и нажмите Ctrl+Enter