Atreyu
Bleeding Mascara (Intro)

Tuning: Drop C

Sounds 100% to me. Enjoy. This sounds awesome once you learn it.

Comments, questions, Email me at [email protected]


[email protected]17-15-13-|
|----15----------15----15----------15----15----------15-------------------|
|-14----------------14----------------14----------------------------------|
|-------------------------------------------------------------------------|
|-------------------------------------------------------------------------|
|-------------------------------------------------------------------------|

|-------13-17-13----------13-17-13-------18--17-15-17-|
|----15----------15----15----------15-----------------|
|-14----------------14----------------14--------------|
|-----------------------------------------------------|
|-----------------------------------------------------|
|-----------------------------------------------------|

|-------13-17-13----------13-17-13----------13-17-13----18-17-15-17-15-13-|
|----15----------15----15----------15----15----------15-------------------|
|-14----------------14----------------14----------------------------------|
|-------------------------------------------------------------------------|
|-------------------------------------------------------------------------|
|-------------------------------------------------------------------------|

|-------13-17-13----------13-17-13--------------------13-15-17-|
|----15----------15----15----------15--------------15----------|
|-14----------------14----------------14--12-14-15-------------|
|--------------------------------------------------------------|
|--------------------------------------------------------------|
|--------------------------------------------------------------|

|-------13-17-13----------13-17-13----------13-17-13----18-17-15-17-15-13-|
|----15----------15----15----------15----15----------15-------------------|
|-14----------------14----------------14----------------------------------|
|-------------------------------------------------------------------------|
|-------------------------------------------------------------------------|
|-------------------------------------------------------------------------|

|-------13-17-13----------13-17-13-------18--17-15-17-|
|----15----------15----15----------15-----------------|
|-14----------------14----------------14--------------|
|-----------------------------------------------------|
|-----------------------------------------------------|
|-----------------------------------------------------|

|-------13-17-13----------13-17-13----------13-17-13----------13-17-13-------|
|----15----------15----15----------15----15----------15----15----------15----|
|-14----------------14----------------14----------------14----------------14-|
|----------------------------------------------------------------------------|
|----------------------------------------------------------------------------|
|----------------------------------------------------------------------------|

|-18-17-15-17-15-13-15-13--------------------------------^---^--|
|-------------------------17-14-15-17-18-17-15-17-15-13-15b-15b-|
|---------------------------------------------------------------|
|---------------------------------------------------------------|
|---------------------------------------------------------------|
|---------------------------------------------------------------|

End


Текст, аккорды и табулатура для песни "Bleeding Mascara", исполняет "Atreyu".
Используемые в песне аккорды можно найти в разделе Как брать аккорды. Аккорды для шестиструнной гитары. Другие песни можно найти на нашем сайте, воспользовавшись алфавитным указателем вверху страницы.


 
Ошибка в тексте? Выделите ошибку и нажмите Ctrl+Enter