-----------------------------------------------------------------------------
                          Atreyu - Ain't Love Grand
-----------------------------------------------------------------------------
                          Submitted By: Thienskater
                                    Enjoi

                          Gtr is in C G C F A D again
 
Gtr I
|-----------------------------------------|----------------|
|-----5-5-6-5-5-8-6-5-----5-5-6-5-5-6-5---|----------------|
|-7-7-----------------7-7---------------7-|----------------|
|-----------------------------------------|-0--3--10--8----|
|-----------------------------------------|-0--3--10--8----|
|-----------------------------------------|-0--3--10--8----|

|--------------------------------------------|
|--------------------------------------------|
|--------------------------------------------|
|-10--10-10--10--10-10--10--10-10--10--10-10-|
|--8---8--8---8---8--8---5---5--5---5---5--5-|
|--------------------------------------------|

|----------------------------|-----------------------|
|----------------------------|-----------------------|
|----------------------------|-----------------------|
|-10--10-10--10--10-10--7--7-|-7--7--7-7--7-8-7-5-7--|
|--8---8--8---8---8--8--5--5-|-5--5--5-5-------------|
|-----------------------0--0-|-0--0--0-0-------------|


   
|----------------------|
|----------------------|
|----------------------|
|-10--10-10--10--10-10-|
|--5---5--5---5---5--5-|
|----------------------|


   
|-------------------------------------|-------------------|--|
|-------------------------------------|-------------------|--|
|-------------------------------------|-------------------|--|
|-10--10-10--10--10-10--10--10-10--10-|-10-10-5-5-5-5-5-5-|--|
|--8---8--8---8---8--8---5---5--5---5-|--8--8-5-5-5-5-5-5-|--|
|--0---0--0---0---0--0----------------|-------5-5-5-5-5-5-|--|

|---------------------------------------------15-----15-----15-|
|--------------------------------------------------------------|
|---------------------------------------------12-----12-----12-|
|-0-0-0-0-0-0-0-0-0-10-12-10-10-10-12-9-9-0-0----0-0----0-0----|
|-0-0-0-0-0-0-0-0-0-----------------------0-0----0-0----0-0----|
|-0-0-0-0-0-0-0-0-0-----------------------0-0----0-0----0-0----|

|-----------------------|
|-----------------------|
|-----------------------|
|-10-12-10-10-10-12-9-9-|
|-----------------------|
|-----------------------|


  
|-----------|-------------|-------------|----------------|------------|
|-----------|-------------|-------------|----------------|------------|
|-----------|-------------|-------------|----------------|------------|
|-0---10--9-|-------------|-------------|----------------|------------|
|-0---10--9-|-5-8-7-3-5-3-|-3-8-7-5-7-5-|-5-12-10-8-10-8-|-8-7-8-3----|
|-0---10--9-|-------------|-------------|----------------|------------|

|-----8-------|-------------------------|------------------------------|
|---6---6---6-|-------------------------|------------------------------|
|-7-------7---|-------------------------|------------------------------|
|-------------|-7-8-7-5-7-5-3-5-2-3-2-0-|-7-8-7--7-8-7--7-8-7----------|
|-------------|-------------------------|---------------------10-8-10--|
|-------------|-------------------------|------------------------------|


Текст, аккорды и табулатура для песни "Aint Love Grand", исполняет "Atreyu".
Используемые в песне аккорды можно найти в разделе Как брать аккорды. Аккорды для шестиструнной гитары. Другие песни можно найти на нашем сайте, воспользовавшись алфавитным указателем вверху страницы.


 
Ошибка в тексте? Выделите ошибку и нажмите Ctrl+Enter