Guitar 2
__________



D|---------------------------------------------------------------------------------------|
A|---------------------------------------------------------------------------------------|
F|----------------------------------53232020-0-------------------------------------------|
C|-000-000-000-000--------------0-0---------3-32-----------------------------------------|
G|-000-000-000-000-555666888666-0-0------------------------------------------------------|
C|-000-000-000-000--------------0-0------------------------------------------------------|
   ... ... ... ...              . .

  four times			   first three times              last time
D|-------------------------------|-------------------------------|-----------------------|
A|-------------------------------|-------------------------------|-----------------------|
F|-------------------------------|-------------------------------|-----------------------|
C|-000-000-000-000---------------|-000-000-000-000-555777888777--|-0-0-0-0-/5-7-8-7------|
G|-000-000-000-000-555666888666--|-000-000-000-000---------------|-0-0-0-0---------------|
C|-000-000-000-000---------------|-000-000-000-000---------------|-0-0-0-0---------------|
   ... ... ... ...                 ... ... ... ...                 . . . .

  four times
D|--------------------------------------------------|------------------------------------|
A|--------------------------------------------------|------------------------------------|
F|--------------------------------------------------|------------------------------------|
C|-000-000-000-000---------000-000-000-000-5-7-8-7--|------------------------------------|
G|-000-000-000-000-5-6-8-6-000-000-000-000----------|------------------------------------|
C|-000-000-000-000---------000-000-000-000----------|------------------------------------|
   ... ... ... ...         ... ... ... ...


D|---------------------------------------------------------------------------------------|
A|---------------------------------------------------------------------------------------|
F|-7------9------12------10------7---------9------12----12/14-9--------------------------|
C|---0000---0000----0000----0000---0-00-00---0000----00----------------------------------|
G|-5-0000-7-0000-10-0000--8-0000-5-0-00-00-7-0000-10-00-10/12-7--------------------------|
C|---0000---0000----0000----0000---0-00-00---0000----00----------------------------------|
     ....   ....    ....    ....   . .. ..   ....    .. 


D|---------------------------------------------------------------------------------------|
A|---------------------------------------------------------------------------------------|
F|------7---------9------12------10------7------9------121212121214----------------------|
C|-0000---0-00-00---0000----0000----0000---0000---0000-----------------------------------|
G|-0000-5-0-00-00-7-0000-10-0000--8-0000-5-0000-7-0000-101010101012----------------------|
C|-0000---0-00-00---0000----0000----0000---0000---0000-----------------------------------|
   ....   . .. ..   ....    ....    ....   ....   ....


D|---------------------------------------------------------------------------------------|
A|---------------------------------------------------------------------------------------|
F|-777-777--777-555-555--555-777-777--777-555-555--555-----------------------------------|
C|-777-777--777-555-555--555-777-777--777-555-555--555-----------------------------------|
G|-555-555--555-333-333--333-555-555--555-333-333--333-----------------------------------|
C|---------------------------------------------------------------------------------------|




D|---------------------------------------------------------------------------------------|
A|---------------------------------------------------------------------------------------|
F|---------------------------------------------------------------------------------------|
C|-777-777--777-555-555--555-777-777--777-555-555----------------------------------------|
G|-777-777--777-555-555--555-777-777--777-555-555----------------------------------------|
C|-777-777--777-555-555--555-777-777--777-555-555----------------------------------------|



  four times
D|----3-1-0H1P0----5-3-------------------------------------------------------------------|
A|---1---------1--3---3------------------------------------------------------------------|
F|--2------------4-----4-----------------------------------------------------------------|
C|-3------------5------------------------------------------------------------------------|
G|---------------------------------------------------------------------------------------|
C|---------------------------------------------------------------------------------------|




D|-3----1--------------------------------------------------------------------------------|
A|-1----1--------------------------------------------------------------------------------|
F|-2----1--------------------------------------------------------------------------------|
C|-3----0----0---------------------------------------------------------------------------|
G|-----------0---------------------------------------------------------------------------|
C|-----------0---------------------------------------------------------------------------|


  play four times        ***starts on third set of guitar 1's solo***
D|---------------------------------------------------------------------------------------|
A|---------------------------------------------------------------------------------------|
F|---------------------------------------------------------------------------------------|
C|---------------------------------------------------------------------------------------|
G|-88812P812P8-88812P812P8-77710P710P7-77710P710P7---------------------------------------|
C|---------------------------------------------------------------------------------------|




D|--------------------------------------------------|------------------------------------|
A|--------------------------------------------------|------------------------------------|
F|--------------------------------------------------|------------------------------------|
C|-88812P812P8-88812P812P8-77710P710P7-77710P710P7--|------------------------------------|
G|--------------------------------------------------|------------------------------------|
C|--------------------------------------------------|------------------------------------|




D|---------------------------------------------------------------------------------------|
A|---------------------------------------------------------------------------------------|
F|-7-7777-9-9999-10-10101010-9-9999-7-7777-9-9999-14-14141414-12-12121212----------------|
C|---------------------------------------------------------------------------------------|
G|-5-5555-7-7777--8--8-8-8-8-7-7777-5-5555-7-7777-12-12121212-10-10101010----------------|
C|---------------------------------------------------------------------------------------|



  play twice                                          second time
D|--------------------------------------------------|------------------------------------|
A|--------------------------------------------------|------------------------------------|
F|-11-11111111-12-12121212-14-14141414-12-12121212--|-11---------------------------------|
C|--------------------------------------------------|------------------------------------|
G|--9--9-9-9-9-10-10101010-12-12121212-10-10101010--|--9---------------------------------|
C|--------------------------------------------------|------------------------------------|


Текст, аккорды и табулатура для песни "A Vampires Lament", исполняет "Atreyu".
Используемые в песне аккорды можно найти в разделе Как брать аккорды. Аккорды для шестиструнной гитары. Другие песни можно найти на нашем сайте, воспользовавшись алфавитным указателем вверху страницы.


 
Ошибка в тексте? Выделите ошибку и нажмите Ctrl+Enter