Atreyu - A Song For The Optimists
Submitted By: Thienskater

Gtr isC G C F A D again
|-------------------|------------------------|
|-------------------|------------------------|
|-------------------|------------------------|
|-0--------8--------|-0---------10-8----7----|
|-0--------8--------|-0---------10-8----7----|
|-0--------8--------|-0---------10-8----7----|


|------------------------------------|-----------------|----------------------|
|------------------------------------|-----------------|----------------------|
|-7-7-7-7-9-9-9-9-5-5-5-5-10-10-9-10-|-7-7-7-7-9-9-9-9-|-5-5-5-5-10-10-10-10--|
|------------------------------------|-----------------|----------------------|
|-5-5-5-5-7-7-7-7-3-3-3-3--8--8-7--8-|-5-5-5-5-7-7-7-7-|-3-3-3-3--8--8--8--8--|
|------------------------------------|-----------------|----------------------|


|----------------|-----------------|----------------|------------------|---|
|----------------|-----------------|----------------|------------------|---|
|----------------|-----------------|----------------|------------------|---|
|----------------|-----------------|----------------|------------------|---|
|-5-7-8-10-8-7-5-|-5-7-8-7-5-3-1-5-|-5-7-8-10-8-7-5-|-12--12-13-12--10-|---|
|----------------|-----------------|----------------|------------------|---|


|----------------|-----------|------------------------|----|
|----------------|-----------|------------------------|----|
|----------------|-----------|------------------------|----|
|-0-2-3-0--2-3---|-----------|-8--8-8-8--10--10-10-10-|----|
|--------------3-|-3-0-3-0-3-|-8--8-8-8--10--10-10-10-|----|
|----------------|-----------|-8--8-8-8--10--10-10-10-|----|

  
|-------------------------------|
|-------------------------------|
|-------------------------------|
|-0-0-0-0-10-10-10-10-3-3-3-2-2-|
|-0-0-0-0-10-10-10-10-3-3-3-2-2-|
|-0-0-0-0-10-10-10-10-3-3-3-2-2-|

   
|-------------------------------------------------|---|
|-------------------------------------------------|---|
|-------------------------------------------------|---|
|-14-12--12-14-15-12--12-14-15-14-14--17-15-14-12-|---|
|-------------------------------------------------|---|
|-------------------------------------------------|---|

 
|---------------------------------------------|
|---------------------------------------------|
|---------------------------------------------|
|-12-14-15-12--12-14-15-17-17-17--17-15-14-12-|
|---------------------------------------------|
|---------------------------------------------|

      
|----------------------------------------------|---|
|----------------------------------------------|---|
|----------------------------------------------|---|
|----12-14-15-12---12-14-15-14-14--17-15-14-12-|---|
|----------------------------------------------|---|
|----------------------------------------------|---|

   
|-------------------------------------------------|----|
|-------------------------------------------------|----|
|-------------------------------------------------|----|
|-12-14-15-12--12-14--15-17-17-17-17-15-14-12-0---|----|
|---------------------------------------------0---|----|
|---------------------------------------------0---|----|


|---------------------------------------|---------------------------------|----|
|---------------------------------------|---------------------------------|----|
|---------------------------------------|-5---5---7---7---5---5---7---7---|----|
|-0-0-0-0-3-3-3-3-8-8-8-8-10-10-10-10---|---7---7---7---7---7---7---7---7-|----|
|-0-0-0-0-3-3-3-3-8-8-8-8-10-10-10-10---|---------------------------------|----|
|-0-0-0-0-3-3-3-3-8-8-8-8-10-10-10-10---|---------------------------------|----|

  
|---------------------------------|----------|----|
|-----5---------------------------|----------|----|
|-5-------7---5---5---5---7---7---|----------|----|
|---7---7---7---7---7---7---7---7-|-8-----10-|----|
|---------------------------------|-8-----10-|----|
|---------------------------------|-8-----10-|----|

|----------------------------------|-----------------------------|----|
|----------------------------------|-----------------------------|----|
|----------------------------------|-----------------------------|----|
|----------------------------------|-----------------------------|----|
|----------------------------------|-----------------------------|----|
|-12-0-0-14-0-0-15-0-0--7-8-10-8-7-|-12-0-0-14-0-0-15-0-0-10-8-7-|----|


|----------------------------------------------------|------|
|----------------------------------------------------|------|
|----------------------------------------------------|------|
|-0--2-3--0--2-3---------------0--2-3--0--2-3--------|--0---|
|----------------3--3-0-3-0-3-----------------3--3-4-|--0---|
|----------------------------------------------------|--0---|


Текст, аккорды и табулатура для песни "A Song For The Optimists", исполняет "Atreyu".
Используемые в песне аккорды можно найти в разделе Как брать аккорды. Аккорды для шестиструнной гитары. Другие песни можно найти на нашем сайте, воспользовавшись алфавитным указателем вверху страницы.


 
Ошибка в тексте? Выделите ошибку и нажмите Ctrl+Enter