Song: A Song for the Optimist
Artist: Atreyu
Album: Suicide Notes and Butterfly Kisses
Tabbed by: Zach Stout ([email protected])

Drop C (1 step below drop D tuning)
It helps to listen to the song to hear the strumming pattern

/ - Slide up
 - Slide down
* - pinch harmonics
^ - palm mute

===========
 Guitar 1
===========

(0:00-0:31)
E|-------------------------------------------------------------------------------------|
B|-------------------------------------------------------------------------------------|
G|-------------------------------------------------------------------------------------|
D|-0--8--0--10-8-7--0--8--0--10-8-7--0--8--0--10-8-7--0--8--7-3------------------------|
A|-0--8--0--10-8-7--0--8--0--10-8-7--0--8--0--10-8-7--0--8--7-3------------------------|
E|-0--8--0--10-8-7--0--8--0--10-8-7--0--8--0--10-8-7--0--8--7-3------------------------|

(0:31-0:54)
E|-------------------------------------------------------------------------------------|
B|-------------------------------------------------------------------------------------|
G|-------------------3333333-555555555--7777777-101010101010101010-3333333-555555555---|
D|-0000000-333333333-3333333-555555555--7777777--8-8-8-8-8-8-8-8-8-3333333-555555555---|
A|-0000000-333333333-1111111-333333333--5555555--8-8-8-8-8-8-8-8-8-1111111-333333333---|
E|-0000000-333333333-------------------------------------------------------------------|

E|-------------------------------------------------------------------------------------|
B|-------------------------------------------------------------------------------------|
G|-------------------3333333-555555555--7777777-101010101010101010-3333333-555555555---|
D|-0000000-333333333-3333333-555555555--7777777--8-8-8-8-8-8-8-8-8-3333333-555555555---|
A|-0000000-333333333-1111111-333333333--5555555--8-8-8-8-8-8-8-8-8-1111111-333333333---|
E|-0000000-333333333-------------------------------------------------------------------|

(0:54-1:24)
E|-------------------------------------------------------------------------------------|
B|-------------------------------------------------------------------------------------|
G|-------------------------------------------------------------------------------------|
D|-------------------------------------------------------------------------------------|
A|-5-7-8-5-7-8-3-0-3-0-3-3/5-5-7-8-5-7-8-3-0-3-0-3-3/5-5-7-8-5-7-8-3-0-3-0-3-----------|
E|-------------------------------------------------------------------------------------|

E|-------------------------------------------------------------------------------------|
B|-------------------------------------------------------------------------------------|
G|-------------------------3-333333-33333333--5-555555-55555555------------------------|
D|-------------------------3-333333-33333333--5-555555-55555555------------------------|
A|-3/5-7-8-5-7-8-3-0-3-0-3-1-111111-11111111--3-333333-33333333------------------------|
E|-------------------------------------------------------------------------------------|
			     ^^^^^^             ^^^^^^

(1:24-1:44)
E|-------------------------------------------------------------------------------------|
B|-------------------------------------------------------------------------------------|
G|-------------------------------555555---------------------------------------555555---|
D|-0-0-0-0-0-0-0-0-0-000-000-0-0-555555-33333-2-0-0-0-0-0-0-0-0-0-000-000-0-0-555555---|
A|-0-0-0-0-0-0-0-0-0-000-000-0-0-333333-33333-2-0-0-0-0-0-0-0-0-0-000-000-0-0-333333---|
E|-0-0-0-0-0-0-0-0-0-000-000-0-0--------33333-2-0-0-0-0-0-0-0-0-0-000-000-0-0----------|
     ^ ^ ^ ^ ^ ^ ^ ^ ^^^ ^^^ ^ ^	          ^ ^ ^ ^ ^ ^ ^ ^ ^^^ ^^^ ^ ^
E|-------------------------------------------------------------------------------------|
B|-------------------------------------------------------------------------------------|
G|---------------------------------------555555----------------------------------------|
D|-33333-2-0-0-0-0-0-0-0-0-0-000-000-0-0-555555-33333-2-0-0-0-0-0-0-0-0-0-000-000-0-0--|
A|-33333-2-0-0-0-0-0-0-0-0-0-000-000-0-0-333333-33333-2-0-0-0-0-0-0-0-0-0-000-000-0-0--|
E|-33333-2-0-0-0-0-0-0-0-0-0-000-000-0-0--------33333-2-0-0-0-0-0-0-0-0-0-000-000-0-0--|
             ^ ^ ^ ^ ^ ^ ^ ^ ^^^ ^^^ ^ ^                  ^ ^ ^ ^ ^ ^ ^ ^ ^^^ ^^^ ^ ^
E|-------------------------------------------------------------------------------------|
B|-------------------------------------------------------------------------------------|
G|-555555------------------------------------------------------------------------------|
D|-555555-33333-2----------------------------------------------------------------------|
A|-333333-33333-2----------------------------------------------------------------------|
E|--------33333-2----------------------------------------------------------------------|

(1:44-2:04)
E|-------------------------------------------------------------------------------------|
B|-------------------------------------------------------------------------------------|
G|-----5-333-------7-555-------5-333333-555555555-------5-333-------7-555-------5------|
D|-000-5-333-3-000-7-555-3-000-5-333333-555555555-3-000-5-333-3-000-7-555-3-000-5------|
A|-000-3-111-3-000-5-333-3-000-3-111111-333333333-3-000-3-111-3-000-5-333-3-000-3------|
E|-000-------3-000-------3-000--------------------3-000-------3-000-------3-000--------|

E|-------------------------------------------------------------------------------------|
B|-------------------------------------------------------------------------------------|
G|-333333-555555555--------------------------------------------------------------------|
D|-333333-555555555-3333-0-------------------------------------------------------------|
A|-111111-333333333-3333-0-------------------------------------------------------------|
E|------------------3333-0-------------------------------------------------------------|

(2:20-2:57)
E|-8-----8----10----10-----8----8---10----10----8----12----10----8----8----8-----------|
B|--10----10----10----10----10---10---10----10---10----10----10---10---10---10---------|
G|----12----12----12----12----12---12---12----12---12----12----12---12---12---12-------|
D|-------------------------------------------------------------------------------------|
A|-------------------------------------------------------------------------------------|
E|-------------------------------------------------------------------------------------|

E|-10----10------8----8-----10----10----8----8----10----10----8----12----10----8-------|
B|---10----10-----10---10-----10----10---10---10----10----10---10----10----10---10-----|
G|-----12----12-----12---12-----12----12---12---12----12----12---12----12----12---12---|
D|-------------------------------------------------------------------------------------|
A|-------------------------------------------------------------------------------------|
E|-------------------------------------------------------------------------------------|

E|-8----8----10----10------8----8----10----10----8----8----10----10----8----12---------|
B|--10---10----10----10-----10---10----10----10---10---10----10----10---10----10-------|
G|----12---12----12----12-----12---12----12----12---12---12----12----12---12----12-----|
D|-------------------------------------------------------------------------------------|
A|-------------------------------------------------------------------------------------|

E|-10----8----8----8----10----10-------------------------------------------------------|
B|---10---10---10---10----10----10-----------------------------------------------------|
G|-----12---12---12---12----12----12--3--5---------------------------------------------|
D|------------------------------------3--5---------------------------------------------|
A|------------------------------------1--3---------------------------------------------|
E|-------------------------------------------------------------------------------------|

(2:57-3:44)
E|-------------------------------------------------------------------------------------|
B|-------------------------------------------------------------------------------------|
G|-------------------------------------------------------------------------------------|
D|-------------------------------------------------------------------------------------|
A|---000-000---000-000---000-000-----------------------000-000---000-000---000-000-----|
E|-5-000-000-7-000-000-8-000-000-000-111-333-111-000-5-000-000-7-000-000-8-000-000-----|
E|---000-000---000-000---000-000-----------------------000-000---000-000---000-000-----|
     ^^^ ^^^   ^^^ ^^^   ^^^ ^^^                       ^^^ ^^^   ^^^ ^^^   ^^^ ^^^
E|-------------------------------------------------------------------------------------|
B|-------------------------------------------------------------------------------------|
G|-------------------------------------------------------------------------------------|
D|----------000-000---000-000---000-000-----------------------000-000---000-000--------|
A|-3-1-0--5-000-000-7-000-000-8-000-000-000-111-333-111-000-5-000-000-7-000-000--8-----|
E|----------000-000---000-000---000-000-----------------------000-000---000-000--------|
            ^^^ ^^^   ^^^ ^^^   ^^^ ^^^                       ^^^ ^^^   ^^^ ^^^
E|-------------------------------------------------------------------------------------|
B|-------------------------------------------------------------------------------------|
G|-------------------------------------------------------------------------------------|
D|-000-000----------000-000---000-000---000-000-----------------------000-000---000----|
A|-000-000-3-1-0--5-000-000-7-000-000-8-000-000-000-111-333-111-000-5-000-000-7-000----|
E|-000-000----------000-000---000-000---000-000-----------------------000-000---000----|
   ^^^ ^^^          ^^^ ^^^   ^^^ ^^^   ^^^ ^^^                       ^^^ ^^^   ^^^
E|-------------------------------------------------------------------------------------|
B|-------------------------------------------------------------------------------------|
G|-------------------------------------------------------------------------------------|
D|-000---000-000----------000-000---000-000---000-000-----------------------000-000----|
A|-000-8-000 000 3-1-0--5-000-000-7-000-000-8-000-000-000-111-333-111-000-5-000-000----|
E|-000---000-000----------000-000---000-000---000-000-----------------------000-000----|
   ^^^   ^^^ ^^^          ^^^ ^^^   ^^^ ^^^   ^^^ ^^^                       ^^^ ^^^
E|-------------------------------------------------------------------------------------|
B|-------------------------------------------------------------------------------------|
G|--------------------------------5-6--------------------------------------------------|
D|---000-000---000-000-------0--0-5-6--------------------------------------------------|
A|-7-000-000-8-000-000-3-1-0-0--0-3-4--------------------------------------------------|
E|---000-000---000-000-------0--0------------------------------------------------------|
     ^^^ ^^^   ^^^ ^^^
(3:44-4:39)
E|-------------------------------------------------------------------------------------|
B|-------------------------------------------------------------------------------------|
G|-------------------------------------------------------------------------------------|
D|-------------------------------------------------------------------------------------|
A|-5-7-8--5-7-8-3-0-3-0-3--3/5-7-8-5-7-8-3-0-3-0-3--3/5-7-8-5-7-8-3-0-3-0-3------------|
E|-------------------------------------------------------------------------------------|

E|-------------------------------------------------------------------------------------|
B|-------------------------------------------------------------------------------------|
G|-------------------------------------------------------------------------------------|
D|----------------------------------------------------------------------------0--------|
A|-3/5-7-8-5-7-8-3-0-3-0-3--3/5-7-8-5-7-8-3-0-3-0-3--3/5-7-8-5-7-8-3-0-3-0-3--0--------|
E|----------------------------------------------------------------------------0--------|

===========
 Guitar 2
===========

(0:00-0:20)
E|-------------------------------------------------------------------------------------|
B|-------------------------------------------------------------------------------------|
G|-------------------------------------------------------------------------------------|
D|-0--8--0--10-8-7--0--8--0--10-8-7----------------------------------------------------|
A|-0--8--0--10-8-7--0--8--0--10-8-7----------------------------------------------------|
E|-0--8--0--10-8-7--0--8--0--10-8-7----------------------------------------------------|

(0:20-0:31)
E|-------------------------------------------------------------------------------------|
B|-------------------------------------------------------------------------------------|
G|-7-------9------5------10------9-----10------7------9------10------------------------|
D|-*-X 12--*-X 12-*-X 12--*-X 6--*-X 3--*-X 3--*-X 12-*-X 12--*-X 24-------------------|
A|-5-------7------3-------8------7------8------5------7-------8------------------------|
E|-------------------------------------------------------------------------------------|

(0:31-0:53)
E|-------------------------------------------------------------------------------------|
B|-------------------------------------------------------------------------------------|
G|-------------------------------------------------------------------------------------|
D|-------------------------------------------------------------------------------------|
A|-555-777-888-101010-888-777-555-555-777-888-777-555-333-111-555-555-777-888-101010---|
E|-------------------------------------------------------------------------------------|

E|-------------------------------------------------------------------------------------|
B|-------------------------------------------------------------------------------------|
G|-------------------------------------------------------------------------------------|
D|--------------------888888-777777----------------------------------------------------|
A|-888-777-555-444444---------------777777-555-777-888-101010-777-555-555-777-888-777--|
E|-------------------------------------------------------------------------------------|

E|-------------------------------------------------------------------------------------|
B|-------------------------------------------------------------------------------------|
G|-------------------------------------------------------------------------------------|
D|-------------------------------------------------------888888-777777-----------------|
A|-555-333-111-555-555-777-888-101010-888-777-555-444444---------------777777----------|
E|-------------------------------------------------------------------------------------|

(0:54-1:24)
E|-------------------------------------------------------------------------------------|
B|-------------------------------------------------------------------------------------|
G|-------------------------------------------------------------------------------------|
D|-3-5-7-5-7-5-2-3-5-3-2--3-5-7-3-5-7-2-3-5-3-2---3-5-7-3-5-7-2-3-5-3-2----------------|
A|-------------------------------------------------------------------------------------|
E|-------------------------------------------------------------------------------------|

E|-------------------------------------------------------------------------------------|
B|-------------------------------------------------------------------------------------|
G|-----------------------3-333333-33333333--5-555555-55555555--------------------------|
D|-3-5-7-3-5-7-2-3-5-3-2-3-333333-33333333--5-555555-55555555--------------------------|
A|-----------------------1-111111-11111111--3-333333-33333333--------------------------|
E|-------------------------------------------------------------------------------------|
			   ^^^^^^             ^^^^^^
(1:24-1:44)
E|-------------------------------------------------------------------------------------|
B|-------------------------------------------------------------------------------------|
G|-------------------------------555555---------------------------------------555555---|
D|-0-0-0-0-0-0-0-0-0-000-000-0-0-555555-33333-2-0-0-0-0-0-0-0-0-0-000-000-0-0-555555---|
A|-0-0-0-0-0-0-0-0-0-000-000-0-0-333333-33333-2-0-0-0-0-0-0-0-0-0-000-000-0-0-333333---|
E|-0-0-0-0-0-0-0-0-0-000-000-0-0--------33333-2-0-0-0-0-0-0-0-0-0-000-000-0-0----------|
     ^ ^ ^ ^ ^ ^ ^ ^ ^^^ ^^^ ^ ^	          ^ ^ ^ ^ ^ ^ ^ ^ ^^^ ^^^ ^ ^
E|-------------------------------------------------------------------------------------|
B|-------------------------------------------------------------------------------------|
G|---------------------------------------555555----------------------------------------|
D|-33333-2-0-0-0-0-0-0-0-0-0-000-000-0-0-555555-33333-2-0-0-0-0-0-0-0-0-0-000-000-0-0--|
A|-33333-2-0-0-0-0-0-0-0-0-0-000-000-0-0-333333-33333-2-0-0-0-0-0-0-0-0-0-000-000-0-0--|
E|-33333-2-0-0-0-0-0-0-0-0-0-000-000-0-0--------33333-2-0-0-0-0-0-0-0-0-0-000-000-0-0--|
             ^ ^ ^ ^ ^ ^ ^ ^ ^^^ ^^^ ^ ^                  ^ ^ ^ ^ ^ ^ ^ ^ ^^^ ^^^ ^ ^
E|-------------------------------------------------------------------------------------|
B|-------------------------------------------------------------------------------------|
G|-555555------------------------------------------------------------------------------|
D|-555555-33333------------------------------------------------------------------------|
A|-333333-33333------------------------------------------------------------------------|
E|--------33333------------------------------------------------------------------------|

(1:44-2:09)
E|-------------------------------------------------------------------------------------|
B|-/6--5-6---6-7-6-7p6-7p6-7p6-----5-6---5-6---/10*-6-8-6-6h8p6-5h6p5-3*---------------|
G|---7-----7-------------------5/7-----7-----5-----------------------------------------|
D|-------------------------------------------------------------------------------------|
A|-------------------------------------------------------------------------------------|
E|-------------------------------------------------------------------------------------|

E|-------------------------------------------------------------------------------------|
B|-5-6---5-6-7-6--13-11-10-11-10-8-6-5-8-6-8-10-8-6-8-10-6-5h6p5-----------------------|
G|-----7---------------------------------------------------------7-5-7-5-5-5/7---------|
D|-------------------------------------------------------------------------------------|
A|-------------------------------------------------------------------------------------|
E|-------------------------------------------------------------------------------------|

(2:09-2:57)
E|-------------------------------------------------------------------------------------|
B|-------------------------------------------------------------------------------------|
G|-------------------3333333-555555555--7777777-101010101010101010-3333333-555555555---|
D|-0000000-333333333-3333333-555555555--7777777--8-8-8-8-8-8-8-8-8-3333333-555555555---|
A|-0000000-333333333-1111111-333333333--5555555--8-8-8-8-8-8-8-8-8-1111111-333333333---|
E|-0000000-333333333-------------------------------------------------------------------|
   ^^^^^^^ ^^^^^^^^^ ^^^^^^^ ^^^^^^^^^  ^^^^^^^  ^ ^ ^ ^ ^ ^ ^ ^ ^ ^^^^^^^ ^^^^^^^^^
E|-------------------------------------------------------------------------------------|
B|-------------------------------------------------------------------------------------|
G|-------------------3333333-555555555--7777777-101010101010101010-3333333-555555555---|
D|-0000000-333333333-3333333-555555555--7777777--8-8-8-8-8-8-8-8-8-3333333-555555555---|
A|-0000000-333333333-1111111-333333333--5555555--8-8-8-8-8-8-8-8-8-1111111-333333333---|
E|-0000000-333333333-------------------------------------------------------------------|
   ^^^^^^^ ^^^^^^^^^ ^^^^^^^ ^^^^^^^^^  ^^^^^^^  ^ ^ ^ ^ ^ ^ ^ ^ ^ ^^^^^^^ ^^^^^^^^^
E|-------------------------------------------------------------------------------------|
B|-------------------------------------------------------------------------------------|
G|-------------------3333333-555555555--7777777-101010101010101010-3333333-555555555---|
D|-0000000-333333333-3333333-555555555--7777777--8-8-8-8-8-8-8-8-8-3333333-555555555---|
A|-0000000-333333333-1111111-333333333--5555555--8-8-8-8-8-8-8-8-8-1111111-333333333---|
E|-0000000-333333333-------------------------------------------------------------------|

E|-------------------------------------------------------------------------------------|
B|-------------------------------------------------------------------------------------|
G|-------------------3333333-555555555--7777777-101010101010101010-3333333-555555555---|
D|-0000000-333333333-3333333-555555555--7777777--8-8-8-8-8-8-8-8-8-3333333-555555555---|
A|-0000000-333333333-1111111-333333333--5555555--8-8-8-8-8-8-8-8-8-1111111-333333333---|
E|-0000000-333333333-------------------------------------------------------------------|

E|--------|
B|--------|
G|-3-5----|
D|-3-5----|
A|-1-3----|
E|--------|

(2:57-3:31)
E|-------------------------------------------------------------------------------------|
B|-------------------------------------------------------------------------------------|
G|-------------------------------------------------------------------------------------|
D|-------------------------------------------------------------------------------------|
A|--3-000-000-5-000-000-7-000-000-222-333-555-333-222-3-000-000-5-000-000-7-000-000----|
E|----000-000---000-000---000-000-----------------------000-000---000-000---000-000----|
E|----000-000---000-000---000-000-----------------------000-000---000-000---000-000----|
      ^^^ ^^^   ^^^ ^^^   ^^^ ^^^                       ^^^ ^^^   ^^^ ^^^   ^^^ ^^^
E|-------------------------------------------------------------------------------------|
B|-------------------------------------------------------------------------------------|
G|-------------------------------------------------------------------------------------|
D|-5-3-2--3-000-000-5-000-000-7-000-000-222-333-555-333-222-3-000-000-5-000-000-7------|
A|----------000-000---000-000---000-000-----------------------000-000---000-000--------|
E|----------000-000---000-000---000-000-----------------------000-000---000-000--------|
            ^^^ ^^^   ^^^ ^^^   ^^^ ^^^                       ^^^ ^^^   ^^^ ^^^
E|-------------------------------------------------------------------------------------|
B|-------------------------------------------------------------------------------------|
G|-------------------------------------------------------------------------------------|
D|-000-000-5-3-2--3-000-000-5-000-000-7-000-000-222-333-555-333-222-3-000-000-5-000----|
A|-000-000----------000-000---000-000---000-000-----------------------000-000---000----|
E|-000-000----------000-000---000-000---000-000-----------------------000-000---000----|
   ^^^ ^^^          ^^^ ^^^   ^^^ ^^^   ^^^ ^^^                       ^^^ ^^^   ^^^
E|-------------------------------------------------------------------------------------|
B|-------------------------------------------------------------------------------------|
G|-------------------------------------------------------------------------------------|
D|-000-7-000-000-5-3-2--3-000-000-5-000-000-7-000-000-222-333-555-333-222-3-000-000----|
A|-000---000 000 ---------000-000---000-000---000-000-----------------------000-000----|
E|-000---000-000----------000-000---000-000---000-000-----------------------000-000----|
   ^^^   ^^^ ^^^          ^^^ ^^^   ^^^ ^^^   ^^^ ^^^                       ^^^ ^^^
E|-------------------------------------------------------------------------------------|
B|-------------------------------------------------------------------------------------|
G|-------------------------------------------------------------------------------------|
D|-5-000-000-7-000-000-5-3-2-----------------------------------------------------------|
A|---000-000---000-000-----------------------------------------------------------------|
E|---000-000---000-000-----------------------------------------------------------------|
     ^^^ ^^^   ^^^ ^^^
(3:31-4:39)

E|-------------------------------------------------------------------------------------|
B|-------------------------------------------------------------------------------------|
G|-------------------------------------------------------------------------------------|
D|-3-5-7-5-7-5-2-3-5-3-2--3-5-7-3-5-7-2-3-5-3-2---3-5-7-3-5-7-2-3-5-3-2----------------|
A|-------------------------------------------------------------------------------------|
E|-------------------------------------------------------------------------------------|

E|-------------------------------------------------------------------------------------|
B|-------------------------------------------------------------------------------------|
G|-------------------------------------------------------------------------------------|
D|-3-5-7-3-5-7-2-3-5-3-2--3-5-7-3-5-7-2-3-5-3-2--3-5-7-3-5-7-2-3-5-3-2-----------------|
A|-------------------------------------------------------------------------------------|
E|-------------------------------------------------------------------------------------|

E|-------------------------------------------------------------------------------------|
B|-------------------------------------------------------------------------------------|
G|-------------------------------------------------------------------------------------|
D|-3-5-7-3-5-7-2-3-5-3-2--3-5-7-3-5-7-2-3-5-3-2--0-------------------------------------|
A|-----------------------------------------------0-------------------------------------|
E|-----------------------------------------------0-------------------------------------|

There you go.
The only part I'm not sure about is the solo part, besides that it's perfect.
If anyone can figure that out and correct it for me, that'd be awesome.


Текст, аккорды и табулатура для песни "A Song For The Optimist", исполняет "Atreyu".
Используемые в песне аккорды можно найти в разделе Как брать аккорды. Аккорды для шестиструнной гитары. Другие песни можно найти на нашем сайте, воспользовавшись алфавитным указателем вверху страницы.


 
Ошибка в тексте? Выделите ошибку и нажмите Ctrl+Enter