================================================================================
         Title : Your Life's Retribution
        Artist : Atheist
         Album : Unquestionable Presence
Transcribed by : J. Litvak, converted and corrected by : Coypu
================================================================================

SECTION A: BOTH GUITARS
|-----------------------------------------------------------------|
|*-------------------------------------------------9--8-----------|
|*--2---------2--2---------------------------------------9--8-----|
|---0--0-0-0--0--0------------------------------------------------|

|----------------------------------------------------|
|-------------------------------9--8----------------*|
|--2----------2--2--------------------9--8--9--11---*|
|--0---0-0-0--0--0-----------------------------------|

SECTION C:
|------------------------------10---------------------------------|
|--------------------------------------------------5-4--------7---|
|---7-6----5-4------7-6----7-8------7-6----5-4---------5--4-5-----| 6x
|-------8-------7-------8---------------8------7------------------|
                                 
|-------------------------12--------------------------------------|
|----------------------------10-----------------------------------|
|--7-6----5-4-----7--6-7/-------12---7-6----5-4---------------8---|
|------8------7--------------------------8------7---------8-7-----|
|---------------------------------------------------5-7-8---------|

|-----------------------------10---------------------------------|
|-------------------------------------------------5-4--------7---|
|---7-6----5-4-----7-6----7-8------7-6----5-4---------5--4-5-----|
|-------8------7-------8---------------8------7------------------|

|--------------------------10--------------------------------------|
|-------------------------------------------5-4-------7------------|
|--7-6----5-4----7-6---7-8-----7-6---5-4--------5-4-5-----0----0---|
|-------8-----7------8-------------8-----7-------------------------|

SECTION D: 
|------9---------------------------11----------------------------|
|*--7--------9------10----------9---------11--------12----------*|
|*--------7------8---------10----------9-------10-----------12--*|
|-----------------------8-------------------------------10-------|

SECTION E:
|----------------------------------------------------------|
|----------------------------------------------------------|
|-----------8----7---------7-----7-----6-----5--4h5-4-5-4--|
|--0-0-0-0--------------0-----6-----5-----4----------------|

|-------------------------------------------------------|
|-------------------------------------------------------|
|-----------8----7---------7---6-----6--5-----5--4------|
|--0-0-0-0--------------0---------0--------0------------|

|----------------------------------------------------------|
|----------------------------------------------------------|
|-----------8----7---------7-----7-----6-----5--4h5-4-5-4--|
|--0-0-0-0--------------0-----6-----5-----4----------------|
                                              
|------------------------------------------------------------|
|------------------------------------------------------------|
|------------8----7--------7-----7-----6-----5--5-4-3-5-4----|
|--0-0--0-0-------------0-----6-----5-----4---------------3--|

SECTION F:
|---------------------------------------------------------|
|*--------------------------------------------------------|
|*------------------------0---------------------------0---|
|---2-2-2-2-2-2---4---5---------2-2-2-2-2-2---4---5-------|

|-------------------------------------------------------|
|------------------------------------------------------*|
|------------------------0-----------------------------*|
|--2-2-2-2-2-2---4---5---------0----0-0-0---0---0-0-0---|

SECTION G:
|-----------------------------------------------------------|
|*----------------------------------------------------------|
|*----------------------------3-------------5---------------|
|--5------------3-----------------------------------------5-|
                              
|-----------------------------------------------------------|
|----------------------------------------------------------*|
|---------------------------3----------------------------5-*|
|-5------------3--------------------------5-----------------|

REPEAT SECTION F:

SECTION I:
|--------------------------------------|---------------------------------------|
|--------------------------------------|---------------------------------------|
|---------------3----------------------|-----------------------3---------------|
|--3-------------------------5---------|----------3-------------------------5--|

SECTION J:
|-----------------------------------------------------------|
|-----------------------------------------------------------|
|-3-3-3-3-3-3-3-3-4-4-4-4-4-4-4-4-5-5-5-5-5-0-0-0-0-0-0-0-0-|
|-----------------------------------------------------------|

|-------------------------------------------------------------|
|---------------------------------4-4-4-4-4-4-4-4-------------|
|-7-7-7-7-7-7-7-7-1-1-1-1-1-1-1-1-----------------4--4--4---4-|
|-------------------------------------------------------------|
 
LEAD 1 RHYTHM: 
|-------------------------------------------------------------------------------|
|-------------------------------------------5-----------------(5)---------------|
|-------------------------------------------------------------------------------|
|--0------------------(0)-------------------------------------------------------|

|-------------------------------------------------------------------------------|
|-------------------------------------------------------------------------------|
|--7-------------------5--------------------3------------------5----------------|
|-------------------------------------------------------------------------------|

|-------------------------------------------------------------------------------|
|-------------------------------------------------------------------------------|
|--7-------------------5--------------------3------------------2----------------|
|-------------------------------------------------------------------------------|

|--------------------------------------------------------|
|--------------------------------------------------------|
|--7-7-7--7--7--7---7--7--7----5-5-5--5--5--5---5--5--5--|
|--------------------------------------------------------|

|-----------------------------------------------------|
|-----------------------------------------------------|
|--3-3-3--3---3--3---3--3--3----5--5-----5----5----5--|
|-----------------------------------------------------|

|---------------------------------------------------------|
|---------------------------------------------------------|
|--7-7-7--7--7--7---7--7--7-----5-5-5--5--5--5---5--5--5--|
|---------------------------------------------------------|

|---------------------------------------------------------|
|---------------------------------------------------------|
|--3-3-3--3--3--3---3--3--3----2-2-2--2---2--2---2--2--2--|
|---------------------------------------------------------|

|-----------------------------------------------------|
|-----------------------------------------------------|
|----------------3--2---------4--3---------6--5--8--7-|
|---0--3--2--0---------3--2---------4--3--------------|

|--------------------------------------------------------|
|*-------------------------------------------------------|
|*---------------3--2---------4--3---------2--1----------|
|---0--3--2--0---------3--2---------4--3---------2--1----|
 
|------------------------------------------------------|
|-----------------------------------------------------*|
|----------------3--2---------4--3---------6--5--8--7-*|
|--0--3---2--0---------3--2---------4--3---------------|

SECTION K:
|------------------------------------------------|
|*----------------------------------------------*|
|*----------------------------------------------*|
|---0------------0---1--2--3------------3--2--1--|

SECTION L:
|------------------------------------------------10--|
|----------------------------------------------------|
|---7---6-------5---4--------7---6-------8---7-------|
|-----------8-----------7------------8---------------|

|----------------------------------------------------|
|----------------------------5---4---------------7---|
|--7---6--------5---4----------------5---4---5-------|
|-----------8-----------7----------------------------|

|----------------------------------------12------------|
|---------------------------------------------10-------|
|--7---6-------5---4--------7----6---7/------------12--|
|----------8-----------7-------------------------------|

|---------------------------------------------------|
|---------------------------------------------------|
|--7---6-------5---4--------------------3-----------|
|----------8-----------7----3---2---3-------x----2--|

SECTION M:
|--------------------5--|
|*---------5-----------*|
|*---------------------*|
|---2--3------2--3------|
           ^ (pop)   ^ (pop)

SECTION N:                                                                      
|---------------------------------------------------|
|---------------------------------------------------|
|---------------------------------------------------|
|--5---4---5---4---2--4----5---4---5----4---2--4----|

|------------------------------------------------|
|------------------------------------------------|
|------------------------------------------------|
|--5---4---5---4---2--4----5---4---5-------------|

REPEAT SECTION M

SECTION P:
|-------------------------------------------------------------------------|
|*-----------------------------------------------------------------------*|
|*-----------------------------------------------------------------------*|
|---5-5-5-4-4-4-5-5-5-4-4-4--2-2-4-4--5-5-5-4-4-4-5--5-5-4-4-4--2-2-4-4---|

|------------------------------------------------------------|
|------------------------------------------------------------|
|------------------------4--3--------3--2--------------------|
|--5-5-5-5-5--4-4-4-4-4--------0--5--------0--0--0-0--0--0---|


Текст, аккорды и табулатура для песни "Your Lifes Retribution", исполняет "Atheist".
Используемые в песне аккорды можно найти в разделе Как брать аккорды. Аккорды для шестиструнной гитары. Другие песни можно найти на нашем сайте, воспользовавшись алфавитным указателем вверху страницы.


 
Ошибка в тексте? Выделите ошибку и нажмите Ctrl+Enter