================================================================================
         Title : Unholy War
        Artist : Atheist
         Album : Piece Of Time
Transcribed by : J. Litvak, converted and corrected by : Coypu
================================================================================

Some timings are not exact so listen to the song and you will have no trouble
figuring it out.

SECTION A:
G|--------------------5-5-5-------4-4-4----------------------------|
D|--------------4-4-4-------3-3-3----------------------------------|
A|----5-----4--------------------------------5-----4---------5-5-5-|
E|-4-----3--------------------------------4-----3------4-4-4-------|
B|-----------------------------------------------------------------|

G|-----------------------------------------------------------------|
D|-----------------------------------------------------------------|
A|-------4-4-4------5-----4---------5-5-5-------4-4-4-----5-----4--|
E|-3-3-3---------4-----3------4-4-4-------3-3-3--------4-----3-----|
B|-----------------------------------------------------------------|

SECTION B:
G|----------------------------------------------------------------------|
D|----------------------------------------------------------------------|
A|*--------------3-3-2-2-2-2-----------------------3-3-2-2-2-2----------|
E|---2-2-2-2-2-2-------------5-5-3-0--2-2-2-2-2-2--------------5-5-3-0--|
B|----------------------------------------------------------------------|
                                                                   
G|----------------------------------------------------------|
D|----------------------------------------------------------|
A|--------------3-3-2-2-2-2-----------4---------4---5------*|
E|-2-2-2-2-2-2---------------5-5-3-0--2---------2---3-------|
B|----------------------------------------------------------|
                             4x

SECTION C:
G|-------------------------------------------7-7-7-------6-6-6-----------|
D|-------------------------------------6-6-6-------5-5-5-----------------|
A|-------5-5-5--------4-4-4----5----4-----------------------------5----4-|
E|-4-4-4--------3-3-3--------4----3-----------------------------4----3---|
B|-----------------------------------------------------------------------|
                                                               
G|-------7-7--7-------6-6-6------------------7-7-7-------6-6-6------------|
D|-6-6-6--------5-5-5------------------6-6-6-------5-5-5------------------|
A|-----------------------------5----4-----------------------------5----4--|
E|---------------------------4----3-----------------------------4----3----|
B|------------------------------------------------------------------------|

Repeat Section B 1x

SECTION D:
G|---------------------------------------------------------|
D|------------------------------------------------------6--|
A|-------7--8--------6--5h6-5---------7--8--------6--5-----|
E|---5---------7--6------------6---5--------7--6-----------|
B|---------------------------------------------------------|
                             4x

SECTION E: BOTH GUITARS
G|---------------------------------------------------|
D|---9-------9---8-------8----8-------8---7-------7--|
A|*------7-----------9------------7-----------8------|
E|---------------------------------------------------|
B|---------------------------------------------------|

G|---------------------------------------------------|
D|--7-------7---6-------6----6-------6---5--------5--|
A|------5-----------7------------5-----------6------*|
E|---------------------------------------------------|
B|---------------------------------------------------|
                             3x			

Play this the last time
G|-------------------------|
D|--7-------7---6-------6--|
A|------5-----------7------|
E|-------------------------|
B|-------------------------|

SECTION F:
G|---------------------------------------------------|
D|---------------------------------------------------|
A|*--------------3-3-3-4-4-4-5-5-5-5-5-5-4-4-4-4-4-4-|
E|---2-2-2-2-2-2-------------------------------------|
B|---------------------------------------------------|

G|---------------------------------------------------|
D|---------------------------------------------------|
A|-3-3-3-3-3-3-3-3-3-3-3-3--------------------------*|
E|-------------------------2-2-2-3-3-3-5-5-5-3-3-3---|
B|---------------------------------------------------|
                              4x

SECTION G:
G|-----------------------------------------------------------------------------
D|-----------------------------------------------------9-----9--8-----8--------
A|---------------5-5-5--5--5------------------------------7--------9-----5-5-5-
E|--0--0---0--0---------------5--4--3---0----3----5----------------------------
B|-----------------------------------------------------------------------------

G|----------------|-----------------------------------------------------
D|----------------|-----------------------------------------------------
A|--5--5----------|----------------7-----7--6-----6--5-5-5--5--5--------
E|--------5--4--3-|-0----3----5-------5--------7------------------5--4--
B|----------------|-----------------------------------------------------
                                   
G|-----------------------------------------------------------|----------|
D|--------------------9-----9--8-----8-----------------------|----------|
A|-----------------------7--------9-----5-5-5--5--5----------|----------|
E|--3--0----3----5-----------------------------------5--4--3-|-0--------|
B|-----------------------------------------------------------|----------|

Repeat Section B 6x

SECTION H:
G|------------------------------------------7-7-7-------6-6-6------------|
D|------------------------------------6-6-6-------5-5-5------------------|
A|-------5-5-5-------4-4-4----5----4-----------------------------5----4--|
E|-4-4-4-------3-3-3--------4----3-----------------------------4----3----|
B|-----------------------------------------------------------------------|
                        

G|-------7-7-7-------6-6-6------------------------------------------------|
D|-6-6-6-------5-5-5------------------------------------------------------|
A|---------------------------5----4----------5-5-5-------4-4-4----5----4--|
E|-------------------------4----3------4-4-4-------3-3-3--------4----3----|
B|------------------------------------------------------------------------|
                            
G|------------------------------------------------|
D|-----------------------------------------------*|
A|-----5-------4-------5-------4-----------------*|
E|---4-------3-------4-------3------0------------*|
B|------------------------------------------------|


Текст, аккорды и табулатура для песни "Unholy War", исполняет "Atheist".
Используемые в песне аккорды можно найти в разделе Как брать аккорды. Аккорды для шестиструнной гитары. Другие песни можно найти на нашем сайте, воспользовавшись алфавитным указателем вверху страницы.


 
Ошибка в тексте? Выделите ошибку и нажмите Ctrl+Enter