================================================================================
         Title : No Truth
        Artist : Atheist
         Album : Piece Of Time
Transcribed by : J. Litvak, converted and corrected by : Coypu
================================================================================

Some timings are not exact so listen to the song and you will have no trouble
figuring it out.

SECTION A:                    Ѕ              Ѕ
G|---------------------|--------------|-------------|
D|---------------------|--------------|-------------|
A|*--x-x-2-------------|-----3--------|-------------|*
E|---------------x-x-4-|--------------|-----2-------|
B|---------------------|--------------|-------------|
             4x
SECTION B:
G|------------------------------------------------|--------------------------------------------|
D|------------------------------------------------|--------------------------------------------|
A|------------------------------------------------|--------------------------------------------|
E|--2----2-----2-----2-----2----2-----2----2------|-2-----2-----2-----2-------------/---------|
B|------------------------------------------------|--------------------------------------------|

SECTION C:
G|-------------------------------------------------------|
D|-------------------------------------------------------|
A|------2--1--0-------------------2--1--0----------------|
E|---0------------1--2--3--1---0------------1--2--3--1---|
B|-------------------------------------------------------|
                                                          
G|-------------------------------------------------------|
D|-------------------------------------------------------|
A|*-----2--1--0------------3------2--1--0------------3--*|
E|---0------------1--2--3------0------------1--2--3------|
B|-------------------------------------------------------|

SECTION D:
G|------------------------------------------------------------------------|
D|------------------------------------------------------------------------|
A|*------2-2--1-1-0-0--------------3-3------2-2-1-1-0-0-------------3-3--*|
E|---0-0---------------1-1-2-2-3-3------0-0-------------1-1-2-2-3-3-------|
B|------------------------------------------------------------------------|

G|-------------------------------------------------------|
D|-------------------------------------------------------|
A|*-----2--1--0------------3------2--1--0---------------*|
E|---0------------1--2--3------0------------1--2--3--1---|
B|-------------------------------------------------------|

SECTION E:
G|------------------------------------------------------------------------|
D|------------------------------------------------------------------------|
A|*------2-2--1-1-0-0--------------3-3------2-2-1-1-0-0-------------3-3--*|
E|---0-0---------------1-1-2-2-3-3------0-0-------------1-1-2-2-3-3-------|
B|------------------------------------------------------------------------|

SECTION F:
G|----------------------------------------------------------------------|
D|----------------------------------------------------------------------|
A|*---------------------------------------------------------------------|
E|---3-3--3-3-3-3--2-2-2-2-2-2-2-2--2-2-2-2-2-2-2-2--2-2-2-2-2-2-2-2----|
B|----------------------------------------------------------------------|

G|-------------------------------------------------------------|
D|-------------------------------------------------------------|
A|-------------------1h-2--1--2--1--2--1--2--1----------------*|
E|--2-2-2-2-2-2-2-2-----------------------------3-3-3-3-3-3----|
B|-------------------------------------------------------------|

G|----------------------------------------------------------------------|
D|----------------------------------------------------------------------|
A|---------------------------------------------------3-3-3-3------------|
E|---3-3-3-3-3--3--2-2-2-2-2-2-2-2--2-2-2-2-2-2-2-2-----------2-2-2-2---|
B|----------------------------------------------------------------------|

repeat SECTION E:

SECTION G:
G|------------------------------------|--------------------------------|
D|------------------------------------|--------------------------------|
A|*----------------------------------*|--------------------------------|
E|-0-0-0-3-2-0-0-2/-3---0-0--5--0-3---|-0-0-0-3-2-0-0-2/-3---0-0--5-5--|
B|------------------------------------|--------------------------------|
                                                        
G|----------------------------------------|
D|----------------------------------------|
A|----------------------------------------|
E|--0-------------------3-----------------|
B|----------------------------------------|                                           
     
SECTION H:
G|------------------------------------------------------------------------|
D|------------------------------------------------------------------------|
A|*----------------7-7-6-6-6-6-7-7-7-7---------------7-7-6-6-6-6-7-7-7-7--|
E|---5-5-5-5-5-5------------------------5-5-5-5-5-5-----------------------|
B|------------------------------------------------------------------------|

G|---------------------------------------------------------------|
D|---------------------------------------------------------------|
A|--------------------------------------------------------------*|
E|--4-4-4-4-4--4-4-4--4--4--4--4--4-4-4-4-4-4-4-4--4--4--4--4----|
B|---------------------------------------------------------------|
                               4x

SECTION I:
G|---------------------------------------------------|
D|---------------------------------------------------|
A|*-----------------------------------8--7------6---|
E|---0----0--0----0--0----x---8--7----------8-------|
B|---------------------------------------------------|

G|--------------------------------------------------------------------|
D|--------------------------------------------------------------------|
A|--------------------------------------------------------------------|
E|--3h-6-3--6-3--6-3--6-3--6-3--6--3--6-3--6-3-2h-5-2--5-2--5-2--5-2-|
B|--------------------------------------------------------------------|

G|-------------------------------------------------------------------|
D|-------------------------------------------------------------------|
A|-------1----------------------2---------------------8--7------6---|
E|-3--0---------0---0--0--0--0------------x---8--7----------8-------|
B|-------------------------------------------------------------------|

G|--------------------------------------------------------------------|
D|--------------------------------------------------------------------|
A|---------------------------------------------------------------1---*|
E|--3h6-3-6-3-6-3-6-3-6-3-6-3-6-3-6--3-2h5-2-5-2-5-2-5-2--3--0-------|
B|--------------------------------------------------------------------|

SECTION J:
G|---------------------------------|
D|---------------------------------|
A|---------------------2/3---------|
E|--2-3h5p3-1-0-3--3h4-----4p3-2-5-|
B|---------------------------------|

G|----------------------------------------------2h3-2---0----------|
D|--1/-2-----3-2-----------------------1h2-2h3-------3------------|
A|*-------------------------1--------------------------------------|
E|-------0-0------0-0-2/-3----0-0-0-0----------------------0-0-0-0-|
B|-----------------------------------------------------------------|

G|----------------------------------------------2h3-2---0----------|
D|-1/--2-------3-2---------------------1h2-2h3-------3------------|
A|---------------------------------1--*----------------------------|
E|--------0-0--------0-0-0-0-2/-3--------------------------0-0-0-0-|
B|-----------------------------------------------------------------|

G|--------------------------------------
D|-1/-2-------3-2----------------------
A|---------------------------1----------
E|-------0-0-------0-0-2/-3-----0-0-0-0-
B|--------------------------------------

G|---------2h3-2---0----------------------------------------------|
D|-1h2-2h3-------3-------------1/-2-------3-2--------------------|
A|------------------------------------------------------------1--*|
E|--------------------0-0-0-0--------0-0--------0-0-0-0-2/-3------|
B|----------------------------------------------------------------|

SECTION K:
G|--------------------------------------------------------------------|
D|---2/-3-3/-4-----2--------2-------2/--3-3/-4-----2------------------|
A|*------------x-x---x-x-2-----x-x-------------x-x----x-x-2--1--x-x--*|
E|--------------------------------------------------------------------|
B|--------------------------------------------------------------------|
                                  3x

G|------------------------------------------------*|
D|---------------------2/-3-3/-4-----2------------*|
A|-------------------------------x-x----x-x-2-----*|
E|---------------------------------------------0--*|
B|------------------------------------------------*|
                             4x


Текст, аккорды и табулатура для песни "No Truth", исполняет "Atheist".
Используемые в песне аккорды можно найти в разделе Как брать аккорды. Аккорды для шестиструнной гитары. Другие песни можно найти на нашем сайте, воспользовавшись алфавитным указателем вверху страницы.


 
Ошибка в тексте? Выделите ошибку и нажмите Ctrl+Enter