================================================================================
         Title : Brains
        Artist : Atheist
         Album : Unquestionable Presence
Transcribed by : J. Litvak, converted and corrected by : Coypu
================================================================================

INTRO: 
|------------------------------------------------|
|---5--------------------------------3-----------|
|------------4-----5-------------2---------------|
|----------------------------4-------------------|

|-------------------------------------------------|
|--5---------------------------------3------------|
|-----------4-----5--------------2-------3--------|
|----------------------------4--------------------|

SECTION A: 
|-----------------------------------------------|
|-----------------------------------------------|
|*--7---------------------------------------5---|
|-------------6------7--------------0---4-------|

|-----------------------------------------------|
|-----------------------------------------------|
|---2-----------------------------------5---6--*|
|-------------1------0--------------1-----------|

SECTION B: 
|--------------------------------------------------------------|
|--2-2-2----------------5-5-5---2-2-2--------------------------|
|*--------1-1-1--2-2-2-----------------1-1-1--2-2-2-----------*|
|----------------------------------------------------3-3-3-----|

|---------------------------------------------------|
|---------------------------------------------------|
|*-------1----2----------------1----0--------------*|
|---0--------------3b-----0---------------3b5-------|

|-------------------------------------------------------------|
|-2-2-2----------------5-5-5---2-2-2--------------------------|
|--------1-1-1--2-2-2-----------------1-1-1--2-2-2------------|
|---------------------------------------------------3-3-3-----|
                                                                
|-------------------------------------------------------------|
|----2-2-2----------------5-5-5---2-2-2-----------------------|
|-----------1-1-1--2-2-2-----------------1-1-1--2-2-2---------|
|------------------------------------------------------3-3----|

SECTION C:

|---------------------------------------------------|
|--------------------3--------------6---------------|
|-5----------5-----------2--------------5-----pause-|
|-----4----------4----------------------------------|

|----------------------------------------------------|
|-----------------------------3---------------3------|
|*--5---------------5-------------2-------2-------2--|
|-------4---0---4--------4------------1--------------|

|----------------------------------------------------|
|--6---------------6--------6----------------6-------|
|------5-------5-------5--------5--------5-------5---|
|----------4------------------------4----------------|

|------------------------------------------7-------|
|-6---------------6--------6-----------6-------6---|
|-----5-------5-------5------------5--------------*|
|---------4--------------------4-------------------|
                                                             
|-------------------------------------------------|
|--------------------------3---------------3------|
|-5---------------5------------2-------2-------2--|
|-----4---0---4-------4------------1--------------|

|---------------------------------------------------|
|-6---------------6---------6---------------6-------|
|-----5-------5-------5---------5-------5-------5---|
|---------4-------------------------4---------------|

|---------------------------------------------|
|-6-------------5--------4-------------3------|
|-----5-------------4--------3-------------2--|
|---------------------------------------------|

SECTION D:                  
|------------------------------------------------------|
|---------------------------------------2--------------|
|------------------------------------------------------|
|--------0------------------0--0--3--5-----0--0--0--0--|

|-------7--7-------7--7---------6--6-----------6--------------------------------|
|-------------------------------------------------------------------------------|
|-------------------------------------------------------------------------------|
|---------------------------------------------------5--------4--------3---------|

|-----------------------------------|
|--------------2--1~----------3h5---|
|*------0--1~----------0-----------*|
|---3~--------------------4~--------|

|--------------------------------------------------|
|----------------------2--1------------------3h5---|
|*----------0--1------------------0----------------|
|---3--------------------------------4-------------|

|---------------------------------------------------------------------------------|
|---------------------------------------2---------------------------2-------------|
|---------------------------------------------------------------------------------|
|--------0------------------0--0--3--5-----0--0--0--0---0--0--3--5-----0--0--0--0-|

|-------7--7-------7--7---------6--6-----------6--6-----------------------------|
|-------------------------------------------------------------------------------|
|-------------------------------------------------------------------------------|
|-----------------------------------------------------5--------4--------3/------|
SECTION E:
|--------------------------------------------------------|
|------------------8-----4---------------8-----4---------|
|---------------7-----3-----3---------7-----3-----3------|
|---0--5--6--5-----------------4---5-----------------4---|

|--------------------------------------------------------|
|------------------8-----4---------------8-----4---------|
|---------------7-----3-----3---------7-----3-----3------|
|---0--5--6--5-----------------4---5-----------------4---|

|--------------------------------------------------------|
|------------------8-----4---------------8-----4---------|
|---------------7-----3-----3---------7-----3-----3------|
|---0--5--6--0-----------------4---5-----------------4---|

|----------------------------------------------------|
|--------8------4---------------8-----4--------------|
|-----7------3-----3---------7-----3--------3--------|
|--5------------------4---5-----------------------4--|

|------------------------------------------------------|
|--------8-----4--------------------8-----4------------|
|-----7-----3-------3------------7-----3-------3-------|
|--5---------------------4---5----------------------4--|

|--------------------------------------------|
|--------8-----4-----------------------------|
|-----7-----3-------3------------------------|
|--5---------------------4-------------------|

SECTION F:
|--------------------------------------------------------------|
|--------------------------------------------------------------|
|--------------------------------------------------------------|
|--5-5-5-5-5-5----5-5-5-5-5-5----1-1-1-1-1-1----1-1-1-1-1-1----|

|--------------------------------------------------------------|
|--------------------------------------------------------------|
|--------------------------------------------------------------|
|--0-0-0-0-0-0----0-0-0-0-0-0----0-0-0-0-0-0----0-0-0-0-0-0----|

|--------------------------------------------------------------|
|--------------------------------------------------------------|
|--------------------------------------------------------------|
|--3-3-3-3-3-3----3-3-3-3-3-3----6-6-6-6-6-6----6-6-6-6-6-6----|

|--------------------------------------------------------------|
|--------------------------------------------------------------|
|--------------------------------------------------------------|
|--2-2-2-2-2-2----2-2-2-2-2-2----2-2-2-2-2-2----2-2-2-2-2-2----|

|--------------------------------------------------------------|
|--------------------------------------------------------------|
|--------------------------------------------------------------|
|--5-5-5-5-5-5----5-5-5-5-5-5----1-1-1-1-1-1----1-1-1-1-1-1----|

|--------------------------------------------------------------|
|--Add the bass fill to this part------------------------------|
|--------------------------------------------------------------|
|--0-0-0-0-0-0----0-0-0-0-0-0----0-0-0-0-0-0----0-0-0-0-0-0----|

|--------------------------------------------------------------|
|--------------------------------------------------------------|
|--------------------------------------------------------------|
|--3-3-3-3-3-3----3-3-3-3-3-3----6-6-6-6-6-6----6-6-6-6-6-6----|

|-----------------------------------------------------|
|-----------------------------------------------------|
|-----------------------------------------------------|
|--2-2-2-2-2-2-2-2-----2-2-2-2-----2-2-2-2------------|

Fill
|---------------------|
|-------6-8-8---------|
|---5-7-------8-------|
|-7-------------9-7-9-|

SECTION G: 
|----------------------------------------------------|
|----------------------2--1------------------3h5-----|
|*----------0--1------------------0-----------------*|
|---3--------------------------------4---------------|

LEAD 1 RHYTHM:
|----------------------------------------------------------------------------|
|----------------------------------------------------------------------------|
|-------------------5-5-7-7-3-3-3-3-3-3-3-3----------------------------------|
|---0-0-0-0-0-0-0-0-------------------------7-7-5-5-3-3-3-3-3-3-3-3--5-5-7-7-|

|---------------------------------------------------------------------------|
|---------------------------------------------------------------------------|
|-----------------5-5-7-7-3-3-3-3-3-3-3-3-----------------------------------|
|-0-0-0-0-0-0-0-0-------------------------7-7-5-5-3-3-3-3-3-3--3-3-7-7-5-5--|

|----------------------------------------------------------------------------|
|----------------------------------------------------------------------------|
|-------------------5-5-7-7-3-3-3-3-3-3-3-3----------------------------------|
|---0-0-0-0-0-0-0-0-------------------------7-7-5-5-3-3-3--3-3-3-3-3-7-7-5-5-|

|--------------------------------------------------------------------------------------|
|-------------------------------------------------------------------------------2-3-4--|
|-----------------5-5-7-7-3-3-3-3-3-3-3-3----------------------------------------------|
|-0-0-0-0-0-0-0-0-------------------------7-7-5-5-3--3-3-3-3-3-3-3-5-5-7-7---0---------|

|------------------------------------------------------------------|
|------------------------------------------------------------------|
|*--------------------------0h1-2---------------------------0h1-2--|
|---3-3-3-3-3-3-3-3-3-3-3-3---------0-0-0-0-0-0-0-0-0-0-0-0--------|

|------------------------------------------------------|
|----------------------------------------------2-3-4---|
|--------------------------0h1-2----------------------*|
|--3-3-3-3-3-3-3-3-3-3-3-3--------0--------------------|

SECTION H: BOTH GUITARS
|------------------------------------------------------------|
|------------------------------------------------------------|
|*-----------------------------------------------4---5---4---|
|---3-3-3-3-2-2----3-3-3-3-2-2----3-3-3-3-2-2----------------|

---------------------------------------------------------|
---------------------------------------------------------|
-----------------------------------------------7---8---7-|
--6-6-6-6-5-5----6-6-6-6-5-5----6-6-6-6-5-5--------------|

|--------------------------------------------------------------|
|--------------------------------------------------------------|
|--------------------------------------------------2---3---2---|
|-----1-1-1-1-0-0----1-1-1-1-0-0----1-1-1-1-0-0----------------|
                                      
|---------------------------------------------------------|
|-------------2--2--------------2--2--------------2--2----|
|--------------------------------------------------------*|
|--3-2-1--0---2--0----3-2-1-0---2--0----3-2-1-0---2--0----|

Slap or pop the top notes the first time and play the notes below the second time.

LEAD 2 RHYTHM: 
|------------------------------------------------|
|------------------------------------------------|
|*--7---------------------------------------5----|
|-------------6------7--------------0---4--------|

|------------------------------------------------|
|------------------------------------------------|
|---2-----------------------------------5---6---*|
|-------------1------0--------------1------------|
                                                                            
|------------------------------------------------|
|------------------------------------------------|
|*--7---------------------------------------5----|
|-------------6------7--------------0---4--------|

|------------------------------------------------|
|------------------------------------------------|
|---7-----------------------------------2-------*|
|-------------6------7--------------0-------1----|

SECTION I: 
|----------------------------------------------------|
|-----------------------------3---------------3------|
|---5----------------5------------2-------2-------2--|
|-------4----0---4-------4------------1--------------|

|---------------------------------------------------|
|--6---------------6---------6---------------6------|
|------5-------5-------5---------5-------5-------5--|
|----------4-------------------------4--------------|

|----------------------------------------------------|
|----------------------------3----------------3------|
|*--5---------------5------------2-------2--------2--|
|-------4---0---4-------4------------1---------------|

|--------------------------------------------------|
|--6---------------6-------6---------------6-------|
|------5-------5-------5-------5-------5-------5--*|
|----------4-----------------------4---------------|

|------------------------------------------------|
|--6--------------5--------4-------------3-------|
|------5--------------4--------3-------------2---|
|------------------------------------------------|
                                             *  Repeat Section F.

END: BOTH GUITARS
|----------------------------------------3---------------|
|------------------7------------------2--------4---------|
|*--------------6-----4-----4------1--------3-----3--0---|
|---0--5--6--0-----------6-----5-------------------------|

|---------------------------------------3---------------|
|-----------------7------------------2--------4---------|
|--------------6-----4-----4------1--------3-----3--0--*|
|--0--5--6--0-----------6-----5-------------------------|
                                                 * Fade Out.


Текст, аккорды и табулатура для песни "Brains", исполняет "Atheist".
Используемые в песне аккорды можно найти в разделе Как брать аккорды. Аккорды для шестиструнной гитары. Другие песни можно найти на нашем сайте, воспользовавшись алфавитным указателем вверху страницы.


 
Ошибка в тексте? Выделите ошибку и нажмите Ctrl+Enter