-------------------------------------------------------------------------------
                    The Ataris_-_The Boys Of Summer (v1.4)
-------------------------------------------------------------------------------
Tabbed by: RaZoRb0|z
Email: [email protected]

Tuning: Standard (For those whose voices are not that spectacular to reach that high
pitch in the chorus, tune it down by ј or Ѕ step.)

This tab will DEFINETELY look the same as some of the other tabs...but CHECK IT OUT
CAREFULLY before you decide that it IS the same.The correct number of electric
guitars in this song is 4!F-O-U-R!Either that,or Ataris recorded a back-up track
then played with it.Listen to the second solo VERY CAREFULLY(Headphones recommended
cuz that's how I found out there were 4 guitars and not 3) and you'll hear all 4 of 'em.
Don't follow the timings and number of times to play the notes exactly because they're
not accurate.Use your hearing to determine your own playing style.With distortion no
one can tell much of a difference anyway.

Version 1.4 - Found out that Hold Delay works fine as well in Guitar 4 solo
              24th May 2004
Version 1.3 - corrected mistake in Guitar 4 solo.(Thnx to skasolo)
	      18th May 2004
Version 1.2 - corrected some notes in Guitar 4 solo. 12th April 2004
Version 1.0 - First Release 12th April 2004

High paced song.I love it a lot and I performed it in my school during teachers' day.
This is as accurate as I can get it.It may get more accurate if you guys can give me
some help by adding you comments.Come back frequently because I update as soon as I
get comments.

The Ataris_-_The Boys Of Summer
All Electric Guitars (Guitar 4 can figure out anything to play during the rest of the
song except for those parts that are written for him/her to play [Only parts he should
not touch are : Intro,Bridge,first solo,)

Intro
Guitar 1
e----------------------------------------------------------------------------
B----------------------------------------------------------------------------
G--------------------8~------------------4~------------------6~--------------
D--------------------8~----------------84~----------------4/6~--------------
A—-------------------6~----------------62~----------------2/4~--------------
E----------------------------------------------------------------------------
   Feedback			Pickscrape		picksrape
Guitar 2            (Main Riff begins)
e----------------------------------------------------------------------------
B--------------------7-6--7-6--7-6--7-6--7-6--7-6--7-6--7-6--7-6--7-6--7-6---
G-----------------------6----6----6----6----6----6----6----6----6----6----6--
D----------------------------------------------------------------------------
A—---------------------------------------------------------------------------
E----------------------------------------------------------------------------
Guitar 3
e----------------------------------------------------------------------------
B----------------------------------------------------------------------------
G--8~----------------8~------------------4~------------------6~--------------
D--8~----------------8~----------------84~----------------4/6~--------------
A--6~----------------6~----------------62~----------------2/4~--------------
E----------------------------------------------------------------------------
Guitar 4
e----------------------------------------------------------------------------
B----------------------------------------------------------------------------
G-------------6--------------------------------------------------------------
D---------6h8---8~-----------------------------------------------------------
A----------------------------------------------------------------------------
E----------------------------------------------------------------------------

Intro (con't)                            
Guitar 1
e--------------------------------
B--------------------------------
G-------4~-----------------------
D-----64~-------------4-4-4-4---
A-----42~-------------2-2-2-2---
E--------------------------------
Guitar 2                       (Main Riff Ends)
e--------------------------------
B--7-6--7-6--7-6--7-6--7-6--7-6--
G-----6----6----6----6----6----6-
D--------------------------------
A--------------------------------
E--------------------------------
Guitar 3
e--------------------------------
B--------------------------------
G-------4~-----------------------
D-----64~-------------4-4-4-4---
A-----42~-------------2-2-2-2---
E--------------------------------

Verse (Guitar 2 plays Main Riff, repeated as many times necessary)
Guitar 1
e----------------------------------------------------------------------------
B----------------------------------------------------------------------------
G--8---8-8-8-8--8--8-8-8-8--4---4-4-4-4--4--4-4-4-4--6---6-6-6-6--6--6-6-6-6-
D--8---8-8-8-8--8--8-8-8-8--4---4-4-4-4--4--4-4-4-4--6---6-6-6-6--6--6-6-6-6-
A--6---6-6-6-6--6--6-6-6-6--2---2-2-2-2--2--2-2-2-2--4---4-4-4-4--4--4-4-4-4-
E----------------------------------------------------------------------------
Guitar 3
e----------------------------------------------------------------------------
B----------------------------------------------------------------------------
G--8---8-8-8-8--8--8-8-8-8--4---4-4-4-4--4--4-4-4-4--6---6-6-6-6--6--6-6-6-6-
D--8---8-8-8-8--8--8-8-8-8--4---4-4-4-4--4--4-4-4-4--6---6-6-6-6--6--6-6-6-6-
A--6---6-6-6-6--6--6-6-6-6--2---2-2-2-2--2--2-2-2-2--4---4-4-4-4--4--4-4-4-4-
E----------------------------------------------------------------------------

Verse (con't)
Guitar 1
e---------------------------
B---------------------------
G--4---4-4-4-4--4--4-4-4-4--
D--4---4-4-4-4--4--4-4-4-4--
A--2---2-2-2-2--2--2-2-2-2--
E---------------------------
Guitar 3
e---------------------------
B---------------------------
G--4---4-4-4-4--4--4-4-4-4--
D--4---4-4-4-4--4--4-4-4-4--
A--2---2-2-2-2--2--2-2-2-2--
E---------------------------
 
Chorus
Guitar 1
e----------------------------------------------------------------------------
B----------------------------------------------------------------------------
G-3~-----------------6~-------------------6~-------------------4~------------
D-4~-----------------6~-----------6-6-6--66~---------6-6-6---64~------4-4-4-
A-4~---------4-4-----4~-----------4-4-4--44~---------4-4-4---42~------2-2-2-
E-2~---------2-2-------------------------------------------------------------
Guitar 2
e----------------------------------------------------------------------------
B--------7~---------------------------------------------------------2~-4~-0~-
G----------6~--------------------6~----------------6~------------------------
D------------6~--------------------6~----------------6~----------------------
A------------------------------------4~----------------4~--------------------
E----------------------------------------------------------------------------
Guitar 3
e----------------------------------------------------------------------------
B----------------------------------------------------------------------------
G-3~-----------------6~-------------------6~-------------------4~------------
D-4~-----------------6~-----------6-6-6--66~---------6-6-6---64~------4-4-4-
A-4~---------4-4-----4~-----------4-4-4--44~---------4-4-4---42~------2-2-2-
E-2~---------2-2-------------------------------------------------------------

Repeat Chorus

1st Solo (Guitar 2 plays Main Riff, repeated as many times necessary)
Guitar 1
e----------------------------------------------------------------------------
B----------------------------------------------------------------------------
G--8---8-8-8-8--8--8-8-8-8--4---4-4-4-4--4--4-4-4-4--6---6-6-6-6--6--6-6-6-6-
D--8---8-8-8-8--8--8-8-8-8--4---4-4-4-4--4--4-4-4-4--6---6-6-6-6--6--6-6-6-6-
A--6---6-6-6-6--6--6-6-6-6--2---2-2-2-2--2--2-2-2-2--4---4-4-4-4--4--4-4-4-4-
E----------------------------------------------------------------------------
Guitar 3
e----------------------------------------------------------------------------
B----------------------------------------------------------------------------
G--8-8-8-8-8-8-8-8-8-10-11-13—-11h10h11--------------------------------------
D--x-x-x-x-x-x-x-x-x--x--x--x---x--------------------------------------------
A--6-6-6-6-6-6-6-6-6--8--9-11---9h8h9----------------------------------------
E-------------------------------------------1h2/4-64----4-2-1------------1--

1st Solo (con't)
Guitar 1
e---------------------------
B---------------------------
G--4---4-4-4-4--4--4-4-4-4--
D--4---4-4-4-4--4--4-4-4-4--
A--2---2-2-2-2--2--2-2-2-2--
E---------------------------
Guitar 3
e--------------------------
B--------------------------
G--------------------------
D--------------------------
A---------------------6h4--
E--2/4/6-----2h1h2---------

Verse 2 (Guitar 2 plays Main Riff, repeated as many times necessary)
Guitar 1
e----------------------------------------------------------------------------
B----------------------------------------------------------------------------
G--8~-----------------------4~-----------------------------------------------
D--8~---------------------84~----------------------4/6-6-6-6-6-6-6-6-6-6-6--
A--6~---------------------62~----------------------2/4-4-4-4-4-4-4-4-4-4-4--
E----------------------------------------------------------------------------
                                                   pm - - - - - - - - - - -  
Guitar 3
e----------------------------------------------------------------------------
B----------------------------------------------------------------------------
G----------------------------------------------------------------------------
D-8-8-8-8-8-8-8-8-8-8-8-8-8-4-4-4-4-4-4-4-4-4-4-4-4-4-6-6-6-6-6-6-6-6-6-6-6--
A-6-6-6-6-6-6-6-6-6-6-6-6-8-2-2-2-2-2-2-2-2-2-2-2-2-2-4-4-4-4-4-4-4-4-4-4-4--
E----------------------------------------------------------------------------
pm- - - - - - - - - - - - - - - - - - - - - - - - - - - - - - - - - - - - - 

Verse 2 (con't)
Guitar 1
e-----------------------------
B-----------------------------
G-----------------------------
D-6-4-4-4-4-4-4-4-4-4-4-4-4-4-
A-4-2-2-2-2-2-2-2-2-2-2-2-2-2-
E-----------------------------
pm- - - - - - - - grad. lift pm
Guitar 3
e-----------------------------
B-----------------------------
G-----------------------------
D-6-4-4-4-4-4-4-4-4-4-4-4-4-4-
A-4-2-2-2-2-2-2-2-2-2-2-2-2-2-
E-----------------------------
pm- - - - - - - - grad. lift pm

Chorus
Guitar 1
e----------------------------------------------------------------------------
B----------------------------------------------------------------------------
G-3~-----------------6~-------------------6~-------------------4~------------
D-4~-----------------6~-----------6-6-6--66~---------6-6-6---64~------4-4-4-
A-4~---------4-4-----4~-----------4-4-4--44~---------4-4-4---42~------2-2-2-
E-2~---------2-2-------------------------------------------------------------
Guitar 2
e----------------------------------------------------------------------------
B--------7~---------------------------------------------------------2~-4~-0~-
G----------6~--------------------6~----------------6~------------------------
D------------6~--------------------6~----------------6~----------------------
A------------------------------------4~----------------4~--------------------
E----------------------------------------------------------------------------
Guitar 3
e----------------------------------------------------------------------------
B----------------------------------------------------------------------------
G-3~-----------------6~-------------------6~-------------------4~------------
D-4~-----------------6~-----------6-6-6--66~---------6-6-6---64~------4-4-4-
A-4~---------4-4-----4~-----------4-4-4--44~---------4-4-4---42~------2-2-2-
E-2~---------2-2-------------------------------------------------------------

Repeat Chorus

Bridge
Guitar 1
e----------------------------------------------------------------------
B----------------------------------------------------------------------
G------------------------------------4~--------------------------------
D------------------------------------4~--------------------------------
A------------------------------------2~h4h2~---------------------------
E----------------------------------------------------------------------
Guitar 3
e----------------------------------------------------------------------
B----------------------------------------------------------------------
G--4~--------------------------------4~--------------------------------
D--4~--------------------------------4~--------------------------------
A--2~--------------------------------2~--------------------------------
E----------------------------------------------------------------------
Guitar 4 (Slight Distortion)
e----------------------------------------------------------------------
B----4-4-2-2-0--4—-4-2-0--4-4-2-2-0--4--4-2-0--------------------------
G----------------------------------------------------------------------   2x
D----------------------------------------------------------------------
A----------------------------------------------------------------------
E----------------------------------------------------------------------
 | pm-   -   - - -  -   -  -  -      - -   -   - - -  -   -  -  - -   |

2nd Solo (Not Exact Timing or Strumming shown) (Guitar 2 plays Main Riff 
repeated as many times as nescessary)
Guitar 1                                                  
e-----------------------------------------------------------------------
B-----------------------------------------------------------------------
G--8-8-8-8-8-8-8-8-8-10-11-13—-11h10h11---------------------------------
D--x-x-x-x-x-x-x-x-x--x--x--x---xhxhx-----------------------------------
A--6-6-6-6-6-6-6-6-6--8--9-11---9h8h9-----------------------------------
E-------------------------------------------1h2/4/64------2-1-------1—-
Guitar 3
e----------------------------------------------------------------------------
B----------------------------------------------------------------------------
G--8~----------------4~------------------6~------------------4~--------------
D--8~----------------4~----------------4/6~----------------64~--------------
A--6~----------------2~----------------2/4~----------------42~--------------
E----------------------------------------------------------------------------
	Pickscrape						pickscrape
Guitar 4 (with Delay, starting point could be Time - 441,Feedback - 7.0,Speed - 0.10
Depth - 10.0,Mix - 10.0...Adjust your own timings from this starting point)FURTHER
NOTE:Found out that you can use Hold Delay too,
but haven't figured out the settings for that effect.
e-----------------------------------------------------------------------
B--14---------------------14p12----------------------14---------------
G--------------------------------13--11---------------------------------
D-----------------------------------------------------------------------
A-----------------------------------------------------------------------
E-----------------------------------------------------------------------

2nd Solo (con't) (Guitar 2 plays Main Riff repeated as many times as nescessary)
Guitar 1
e-------------------------------------------------------------------------
B-------------------------------------------------------------------------
G---------------------------------15-15-15-15-15-15-16-15-13-11--11-13-13-
D---------------------------------x-x-x-x-x-x-x--x--x--x--x--x---x--x—-x--
A---------------------------------13-13-13-13-13-13-14-13-11-9---9--11-11-
E-2/4/6---1h2h1-----------------------------------------------------------
Guitar 3
e-----------------------------------------------------------------------
B-----------------------------------------------------------------------
G--8---8-8-8-8--8--8-8-8-8--8-8-8---8-8-8-8--8--8-8-8-8--8-8-4---4-4-4-4
D--8---8-8-8-8--8--8-8-8-8--8-8-8---8-8-8-8--8--8-8-8-8--8-8-4---4-4-4-4
A--6---6-6-6-6--6--6-6-6-6--6-6-6---6-6-6-6--6--6-6-6-6--6-6-2---2-2-2-2
E-----------------------------------------------------------------------
Guitar 4
e-----------------------------------------------------------------------
B---------14p12--------------------14--------------------------14p12---
G-------------------13h11---------------------------------------------13
D-----------------------------------------------------------------------
A-----------------------------------------------------------------------
E-----------------------------------------------------------------------

2nd Solo (con't)
Guitar 1
e----------------------------------------------------------------------
B----------------------------------------------------------------------
G—-11-11-11-11-13-13-13-15-15-13-13-13-13-13-13-11-10-10-10-10-13-15---
D—-x--x--x--x--x--x--x--x--x--x—-x—-x-—x--x--x--x--x--x--x--x—-x-—x----
A—-9--9--9--9--11-11-11-13-13-11-11-11-11-11-11-9--8--8--8--9--11-13---
E----------------------------------------------------------------------
Guitar 3
e----------------------------------------------------------------------
B----------------------------------------------------------------------
G--4--4-4-4-4--4-6---6-6-6-6--6--6-6-6-6--4---4-4-4-4--4--4-4---4-4-4--
D--4--4-4-4-4--4-6---6-6-6-6--6--6-6-6-6--4---4-4-4-4--4--4-4---4-4-4--
A--2--2-2-2-2--2-4---4-4-4-4--4--4-4-4-4--2---2-2-2-2--2--2-2---2-2-2--
E----------------------------------------------------------------------
Guitar 4
e-----------------------------------------------------------------------
B-------------------14-------------------------------6p7p6-6-----------
G-11-------------------------------------------------------8-8p6-6h8----
D---------------------------------------------------------------8-------
A-----------------------------------------------------------------------
E-----------------------------------------------------------------------

2nd Solo (con't)
Guitar 1
e-------------------------------
B-------------------------------
G--18-18-18-18-18-18-18~--------
D—-x--x--x--x--x--x--x----------
A—-16-16-16-16-16-16-16~--------
E-------------------------------
Guitar 3
e--------------------------
B--------------------------
G-4------------------------
D-4------4-4-4-4-4-4-4-4---
A-2------2-2-2-2-2-2-2-2---
E--------------------------
Guitar 4
e--------------------------
B------------7---7h9-11~---
G-----8-8-8---8------------
D--------------------------
A--------------------------
E--------------------------

Verse 3
Guitar 1
e----------------------------------------------------------------------------
B----------------------------------------------------------------------------
G---------------------------4~-----------------------------------------------
D-------------------------84~----------------------4/6-6-6-6-6-6-6-6-6-6-6--
A-------------------------62~----------------------2/4-4-4-4-4-4-4-4-4-4-4--
E----------------------------------------------------------------------------
                                                   pm - - - - - - - - - - -  
Guitar 3
e----------------------------------------------------------------------------
B----------------------------------------------------------------------------
G--8~-----------------------4~-----------------------------------------------
D--8~---------------------84~----------------------4/6-6-6-6-6-6-6-6-6-6-6--
A--6~---------------------62~----------------------2/4-4-4-4-4-4-4-4-4-4-4--
E----------------------------------------------------------------------------
                                                   pm - - - - - - - - - - -  

Verse 3 (con`t)
Guitar 1
e--------------------------------
B--------------------------------
G-----------------------------4x-
D-6-4-4-4-4-4-4-4-4-4-4-4-4-4-4x- - Palmmute
A-4-2-2-2-2-2-2-2-2-2-2-2-2-2-2x-
E--------------------------------
pm- - - - - - - - grad. lift pm
Guitar 3
e--------------------------------
B--------------------------------
G-----------------------------4x-
D-6-4-4-4-4-4-4-4-4-4-4-4-4-4-4x- - Palmmute
A-4-2-2-2-2-2-2-2-2-2-2-2-2-2-2x-
E--------------------------------
pm- - - - - - - - grad. lift pm

Chorus
Guitar 1
e----------------------------------------------------------------------------
B----------------------------------------------------------------------------
G-3~-----------------6~-------------------6~-------------------4~------------
D-4~-----------------6~-----------6-6-6--66~---------6-6-6---64~------4-4-4-
A-4~---------4-4-----4~-----------4-4-4--44~---------4-4-4---42~------2-2-2-
E-2~---------2-2-------------------------------------------------------------
Guitar 2
e----------------------------------------------------------------------------
B--------7~---------------------------------------------------------2~-4~-0~-
G----------6~--------------------6~----------------6~------------------------
D------------6~--------------------6~----------------6~----------------------
A------------------------------------4~----------------4~--------------------
E----------------------------------------------------------------------------
Guitar 3
e----------------------------------------------------------------------------
B----------------------------------------------------------------------------
G-3~-----------------6~-------------------6~-------------------4~------------
D-4~-----------------6~-----------6-6-6--66~---------6-6-6---64~------4-4-4-
A-4~---------4-4-----4~-----------4-4-4--44~---------4-4-4---42~------2-2-2-
E-2~---------2-2-------------------------------------------------------------


Chorus
Guitar 1
e----------------------------------------------------------------------------
B----------------------------------------------------------------------------
G-3~-----------------6~-------------------6~-------------------4~------------
D-4~-----------------6~-----------6-6-6--66~---------6-6-6---64~------4-4-4-
A-4~---------4-4-----4~-----------4-4-4--44~---------4-4-4---42~------2-2-2-
E-2~---------2-2-------------------------------------------------------------
Guitar 2
e----------------------------------------------------------------------------
B--------7~---------------------------------------------------------2~-4~-0~-
G----------6~--------------------6~----------------6~------------------------
D------------6~--------------------6~----------------6~----------------------
A------------------------------------4~----------------4~--------------------
E----------------------------------------------------------------------------
Guitar 3
e----------------------------------------------------------------------------
B----------------------------------------------------------------------------
G-3~-----------------6~-------------------6~-------------------4~------------
D-4~-----------------6~-----------6-6-6--66~---------6-6-6---64~------4-4-4-
A-4~---------4-4-----4~-----------4-4-4--44~---------4-4-4---42~------2-2-2-
E-2~---------2-2-------------------------------------------------------------
Guitar 4
e--------------------------
B----7-6-7-----------------
G----------4-3-1-----------
D--------------------------
A--------------------------
E--------------------------

Pickscrape, Then...

Final Chorus 
Guitar 1
e----------------------------------------------------------------------------
B----------------------------------------------------------------------------
G-3-3-3-3-3----------6-6-6-6-6-6-6-6-6-6-6-6-6-----------------4-4-4-4-4-4---
D-4-4-4-4-4----------6-6-6-6-6-6-6-6-6-6-6-6-6---------------64-4-4-4-4-4---
A-4-4-4-4-4----------4-4-4-4-4-4-4-4-4-4-4-4-4---------------42-2-2-2-2-2---
E-2-2-2-2-2------------------------------------------------------------------
Guitar 2
e----------------------------------------------------------------------------
B--------7~---------------------------------------------------------2~-4~-0~-
G----------6~--------------------6~----------------6~------------------------
D------------6~--------------------6~----------------6~----------------------
A------------------------------------4~----------------4~--------------------
E----------------------------------------------------------------------------
Guitar 3
e----------------------------------------------------------------------------
B----------------------------------------------------------------------------
G-3-3-3-3-3----------6-6-6-6-6-6-6-6-6-6-6-6-6-----------------4-4-4-4-4-4---
D-4-4-4-4-4----------6-6-6-6-6-6-6-6-6-6-6-6-6---------------64-4-4-4-4-4---
A-4-4-4-4-4----------4-4-4-4-4-4-4-4-4-4-4-4-4---------------42-2-2-2-2-2---
E-2-2-2-2-2------------------------------------------------------------------
Guitar 4
e--6--4--6--2---2----6--4--6--2-----2-----6--4--6--2-----2----6--4--6--7--6-4
B-------------2-------------------2--------------------2---------------------
G----------------------------------------------------------------------------
D----------------------------------------------------------------------------
A----------------------------------------------------------------------------
E----------------------------------------------------------------------------

Repeat Final chorus
Outro (After Final Chorus)
Guitar 1
e----------------------------------------------------------------------------
B----------------------------------------------------------------------------
G----------------------6~-------------------6~------------------4~-----------
D--4~------------------6~-------------------6~----------------84~-----------
A--4~------------------4~-------------------4~----------------62~-----------
E--2~------------------------------------------------------------------------
	Pickscrape	    pickscrape		picksrape
Guitars 3
e----------------------------------------------------------------------------
B----------------------------------------------------------------------------
G----------------------6~-------------------6~------------------4~-----------
D--4~------------------6~-------------------6~----------------84~-----------
A--4~------------------4~-------------------4~----------------62~-----------
E--2~------------------------------------------------------------------------
	Pickscrape	    pickscrape		pickscrape
Guitar 4
e--6--4--6--2-----2----6--4--6--2-----2-----6--4--6--2-----2-----------------
B--------------2-------------------2--------------------2---------2h4~-------
G----------------------------------------------------------------------------
D----------------------------------------------------------------------------
A----------------------------------------------------------------------------
E----------------------------------------------------------------------------

All guitars fade out

| /  slide up
|   slide down
| h  hammer-on
| p  pull-off
| ~  vibrato
| +  harmonic
| x  Mute note
===============================================================================


Текст, аккорды и табулатура для песни "The Boys Of Summer", исполняет "Ataris".
Используемые в песне аккорды можно найти в разделе Как брать аккорды. Аккорды для шестиструнной гитары. Другие песни можно найти на нашем сайте, воспользовавшись алфавитным указателем вверху страницы.


 
Ошибка в тексте? Выделите ошибку и нажмите Ctrl+Enter