Name: Gary

Tabs: 
===============================================================================
		Summer Wind Was Always Our Song - The Ataris
===============================================================================
By:  Matt Kaminski([email protected])
     Gary([email protected])

h - hammer on
/ -  slide
PM - Palm Mute
??? - We don't know that part
9x
9x - Mute after picking
7x

Intro:  Guitar 1  (2x)
e|----------------------------------------------------------------------------|
B|----------------------------------------------------------------------------|
G|6-6-6-6-6-6-6-6-6-6-6-6-6-6-6-6---------------------------------------------|
D|6-6-6-6-6-6-6-6-6-6-6-6-6-6-6-6-7-7-7-7-7-7-7-7-7-7-7-7-7-7-7-7-------------|
A|4-4-4-4-4-4-4-4-4-4-4-4-4-4-4-4-7-7-7-7-7-7-7-7-7-7-7-7-7-7-7-7-------------|
E|--------------------------------5-5-5-5-5-5-5-5-5-5-5-5-5-5-5-5-------------|

Intro:  Guitar 2  (2x)
e|0-0-7-0-0-0-0-0-0-7-0-0-7-7-0-0-0-0-0-0-7-0-0-0-0-0-0-0-0-0-0-0-0-0-0-0-0---|
B|4h5-5-4h5-0-0-4h5-5-4h5-5-5-4h5-0-0-4h5-5-5-5-5/4-5-5-5/4-5-5-5/4-5-5-5/4---|
G|----------------------------------------------------------------------------|
D|----------------------------------------------------------------------------|
A|----------------------------------------------------------------------------|
E|----------------------------------------------------------------------------|

Intro Cont'd:  Guitar 2   End with this on 2nd time:
e|-5-4-2-0---0-2-0---|------------------------------4-5-4---------------------|
B|---------0-------2-|------------------------------------0-------------------|
G|-------------------|--------------------------------------------------------|
D|-------------------|--------------------------------------------------------|
A|-------------------|--------------------------------------------------------|
E|-------------------|--------------------------------------------------------|

Fill:  Guitar 1
e|----------------------------------------------------------------------------|
B|----------------------------------------------------------------------------|
G|9-9--9-9-9--9-9-9--9-9-9--9-9-9--9-9-9--9-9x--------------------------------|
D|x-x--x-x-x--x-x-x--x-x-x--x-x-x--x-x-x--x-xx--------------------------------|
A|7-7--7-7-7--7-7-7--7-7-7--7-7-7--7-7-7--7-7x--------------------------------|
E|----------------------------------------------------------------------------|

Fill:  Guitar 2
e|----------------------------------------------------------------------------|
B|----------------------------------------------------------------------------|
G|---------------------------13-13--13-13-13--13-13x--------------------------|
D|----------------------------x--x---x--x--x---x--xx--------------------------|
A|---------------------------11-11--11-11-11--11-11x--------------------------|
E|----------------------------------------------------------------------------|

Verse 1:  Guitar 1
e|----------------------------------------------------------------------------|
B|----------------------------------------------------------------------------|
G|2---------------------------------6-6-6-6-6-6-6-6-6-6-6-6-6-6-6-6-----------|
D|2-2-2-2-2-2-2-2-2-2-2-2-2-2-2-2-2-6-6-6-6-6-6-6-6-6-6-6-6-6-6-6-6-4-4-4-4-4-|
A|0-2-2-2-2-2-2-2-2-2-2-2-2-2-2-2-2-4-4-4-4-4-4-4-4-4-4-4-4-4-4-4-4-6-6-6-6-6-|
E|--0-0-0-0-0-0-0-0-0-0-0-0-0-0-0-0-------------------------------------------|

PM.........................................................................

Verse 1 Cont'd:  Guitar 1
e|----------------------------------------------------------------------------|
B|----------------------------------------------------------------------------|
G|--------------------2-2-2-2-2-2-2-2-2-2-2-2-2-2-2-2--9-9--9-9-9--9-9-9--9-9-|
D|4-4-4-4-4-4-4-4-4-4-2-2-2-2-2-2-2-2-2-2-2-2-2-2-2-2--9-9--9-9-9--9-9-9--9-9-|
A|6-6-6-6-6-6-6-6-6-6-0-0-0-0-0-0-0-0-0-0-0-0-0-0-0-0--7-7--7-7-7--7-7-7--7-7-|
E|----------------------------------------------------------------------------|
PM...................

Verse 1 Cont'd:  Guitar 1
e|----------------------------------------------------------------------------|
B|----------------------------------------------------------------------------|
G|9--9-6-6--6-6-6--6-6-6--6-6-6--6-4-4--4-4-4--4-4-4--4-4-4--4-2-2-2-2-2-2-2-2|
D|9--9-6-6--6-6-6--6-6-6--6-6-6--6-4-4--4-4-4--4-4-4--4-4-4--4-2-2-2-2-2-2-2-2|
A|7--7-4-4--4-4-4--4-4-4--4-4-4--4-2-2--2-2-2--2-2-2--2-2-2--2-0-0-0-0-0-0-0-0|
E|----------------------------------------------------------------------------|

Verse 1:  Guitar 2
e|----------------------------------------------------------------------------|
B|----------------------------------------------------------------------------|
G|2---------------------------------6-6-6-6-6-6-6-6-6-6-6-6-6-6-6-6-----------|
D|2-2-2-2-2-2-2-2-2-2-2-2-2-2-2-2-2-6-6-6-6-6-6-6-6-6-6-6-6-6-6-6-6-4-4-4-4-4-|
A|0-2-2-2-2-2-2-2-2-2-2-2-2-2-2-2-2-4-4-4-4-4-4-4-4-4-4-4-4-4-4-4-4-6-6-6-6-6-|
E|--0-0-0-0-0-0-0-0-0-0-0-0-0-0-0-0-------------------------------------------|

PM.........................................................................

Verse 1 Cont'd:  Guitar 2
e|----------------------4--5--4-----------------------------------------------|
B|-------------------------------0--------------------------------------------|
G|-----------------------------------------------------13-13--13-13-13--13-13-|
D|4-4-4-4-4-4-4-4-4-4-----------------------------------x--x---x--x--x---x--x-|
A|6-6-6-6-6-6-6-6-6-6----------------------------------11-11--11-11-11--11-11-|
E|----------------------------------------------------------------------------|
PM...................

Verse 1 Cont'd:  Guitar 2
e|-----------------------------------------------------------------4-5-4------|
B|-----------------------------------------------------------------------0----|
G|13--13-13-13--13-8-8--8-8-8--8-8-8--8-8-8--9-8-8--8-8-8--8-8-8--------------|
D|-x---x--x--x---x-x-x--x-x-x--x-x-x--x-x-x--x-x-x--x-x-x--x-x-x--------------|
A|11--11-11-11--11-6-6--6-6-6--6-6-6--6-6-6--7-6-6--6-6-6--6-6-6--------------|
E|----------------------------------------------------------------------------|

Chorus:  Guitar 1  (2x)
e|----------------------------------------------------------------------------|
B|----------------------------------------------------------------------------|
G|------------------------------6-6-6-6-6-6-6-6-6-6-6-6--4--2-2-2-2-2-2-2-2-2-|
D|4-4-4--6-6-6--7-7-7-7-7-7-7-7-6-6-6-6-6-6-6-6-6-6-6-6--4--2-2-2-2-2-2-2-2-2-|
A|4-4-4--6-6-6--7-7-7-7-7-7-7-7-4-4-4-4-4-4-4-4-4-4-4-4--2--0-0-0-0-0-0-0-0-0-|
E|2-2-2--4-4-4--5-5-5-5-5-5-5-5-----------------------------------------------|

Chorus:  Guitar 2  (2x)
e|-------------------------------0-0-0-0-0-0-0-0-0-0-0-0-0-0-0----------------|
B|-------------------------------5-5-5-4-5-5-5-4-5-5-5-4-5-5-5----------------|
G|----------------------------------------------------------------2-2-2-2-2-2-|
D|4-4-4--6-6-6--7-7-7-7-7-7-7-7-----------------------------------2-2-2-2-2-2-|
A|4-4-4--6-6-6--7-7-7-7-7-7-7-7-----------------------------------0-0-0-0-0-0-|
E|2-2-2--4-4-4--5-5-5-5-5-5-5-5-----------------------------------------------|

Verse 2:  Guitar 1 (Repeat Verse 1)

Verse 2:  Guitar 2
e|----------------------------------------------------------------------------|
B|----------------------------------------------------------------------------|
G|2---------------------------------6-6-6-6-6-6-6-6-6-6-6-6-6-6-6-6-----------|
D|2-2-2-2-2-2-2-2-2-2-2-2-2-2-2-2-2-6-6-6-6-6-6-6-6-6-6-6-6-6-6-6-6-4-4-4-4-4-|
A|0-2-2-2-2-2-2-2-2-2-2-2-2-2-2-2-2-4-4-4-4-4-4-4-4-4-4-4-4-4-4-4-4-6-6-6-6-6-|
E|--0-0-0-0-0-0-0-0-0-0-0-0-0-0-0-0-------------------------------------------|
PM............................................................................

Verse 2 Cont'd:  Guitar 2
e|-----------------------4--5--4----------------------------------------------|
B|--------------------------------0-------------------------------------------|
G|-----------------------------------------------------13-13-13-13-13-13-13-13|
D|4-4-4-4-4-4-4-4-4-4-----------------------------------x--x--x--x--x--x--x--x|
A|6-6-6-6-6-6-6-6-6-6----------------------------------11-11-11-11-11-11-11-11|
E|----------------------------------------------------------------------------|
PM...................

Verse 2 Cont'd:  Guitar 2
e|--------------------------------------------------------------4-5-4---------|
B|--------------------------------------------------------------------0-------|
G|13-13-13-13-13-13-13-13-8-8-8-8-8-8-8-8-9-8-8-8-8-8-8-8-8-8-----------------|
D|-x--x--x--x--x--x--x--x-x-x-x-x-x-x-x-x-x-x-x-x-x-x-x-x-x-x-----------------|
A|11-11-11-11-11-11-11-11-6-6-6-6-6-6-6-6-7-6-6-6-6-6-6-6-6-6-----------------|
E|----------------------------------------------------------------------------|

Repeat Chorus

Interlude:  Guitar 1  (Picked lightly)  (3x)
e|-----------------------x-x-x-x----------------------------------------------|
B|-----------------------x-x-x-x----------------------------------------------|
G|-----------------------x-x-x-x-2-2-2-2-2-2-2-2-2-2-2-2-2-2-2-2--------------|
D|-2-2-2-2-2-2-2-2-2-2-2-x-x-x-x-2-2-2-2-2-2-2-2-2-2-2-2-2-2-2-2--------------|
A|-2-2-2-2-2-2-2-2-2-2-2-x-x-x-x-0-0-0-0-0-0-0-0-0-0-0-0-0-0-0-0--------------|
E|-0-0-0-0-0-0-0-0-0-0-0-x-x-x-x----------------------------------------------|
                         Scratch

Interlude:  Guitar 2  (3x)
e|----------------------------------------------------------------------------|
B|----------------------------------------------------------------------------|
G|------1-----1--------1-----1--------1-----1--------1-----1------------------|
D|----2---2-----2----2---2-----2----2---2-----2----2---2-----2----------------|
A|--------------------------------0--------------0----------------------------|
E|-0---------------0----------------------------------------------------------|

Bridge:  Guitar 1 (Palm Mute)  (2x)
e|----------------------------------------------------------------------------|
B|----------------------------------------------------------------------------|
G|6-6-6-6-6-6-6-6-6-6-6-6-6-6-6-6-4-4-4-4-4-4-4-4-4-4-4-4-4-4-4-4-2-2-2-2-2-2-|
D|6-6-6-6-6-6-6-6-6-6-6-6-6-6-6-6-4-4-4-4-4-4-4-4-4-4-4-4-4-4-4-4-2-2-2-2-2-2-|
A|4-4-4-4-4-4-4-4-4-4-4-4-4-4-4-4-2-2-2-2-2-2-2-2-2-2-2-2-2-2-2-2-0-0-0-0-0-0-|
E|----------------------------------------------------------------------------|

Bridge Cont'd:  Guitar 1 (Palm Mute)
e|----------------------------------------------------------------------------|
B|----------------------------------------------------------------------------|
G|2-2-2-2-2-2-2-2-2-2-2-2-2-2-2-2-2-2-2-2-2-2-2-2-2-2-------------------------|
D|2-2-2-2-2-2-2-2-2-2-2-2-2-2-2-2-2-2-2-2-2-2-2-2-2-2-------------------------|
A|0-0-0-0-0-0-0-0-0-0-0-0-0-0-0-0-0-0-0-0-0-0-0-0-0-0-------------------------|
E|----------------------------------------------------------------------------|

Bridge:  Guitar 2  (Starts on Guitar 1's 2nd time around)
e|--4---4---4---4---4---4---4---4---7---7---7---7---7---7---7---7--5-5-5-4-4-4|
B|5---5---5---5---5---5---5---5---5---5---5---5---5---5---5---5---------------|
G|----------------------------------------------------------------------------|
D|----------------------------------------------------------------------------|
A|----------------------------------------------------------------------------|
E|----------------------------------------------------------------------------|

Bridge Cont'd:  Guitar 2
e|-0-0-0-0-0-0-0-0-0-0-0-0-5-5-5-4-4-4-0-0-0-0-0-0-0-0-0-0-0-0----------------|
B|----------------------------------------------------------------------------|
G|----------------------------------------------------------------------------|
D|----------------------------------------------------------------------------|
A|----------------------------------------------------------------------------|
E|----------------------------------------------------------------------------|

Instrumental Ending:  Guitar 1  (Repeat Bridge 4x without palm mute)

Instrumental Ending:  Guitar 2  (4x)
e|----------------------------------------------------------------------------|
B|----------------------------------------------------------------------------|
G|6-6-6-6-6-6-6-6-6-6-6-6-6-6-6-6-6-8-8-8-8-8-8-8-8-8-8-8-8-8-8-8-9-9-9-9-9-9-|
D|x-x-x-x-x-x-x-x-x-x-x-x-x-x-x-x-x-x-x-x-x-x-x-x-x-x-x-x-x-x-x-x-x-x-x-x-x-x-|
A|4-4-4-4-4-4-4-4-4-4-4-4-4-4-4-4-6-6-6-6-6-6-6-6-6-6-6-6-6-6-6-6-7-7-7-7-7-7-|
E|----------------------------------------------------------------------------|

Instrumental Ending Cont'd:  Guitar 2
e|----------------------------------------------------------------------------|
B|----------------------------------------------------------------------------|
G|9-9-9-9-9-9-9-9-9-9-9-9-9-9-9-9-9-9-9-9-9-9-9-9-9-9-------------------------|
D|x-x-x-x-x-x-x-x-x-x-x-x-x-x-x-x-x-x-x-x-x-x-x-x-x-x-------------------------|
A|7-7-7-7-7-7-7-7-7-7-7-7-7-7-7-7-7-7-7-7-7-7-7-7-7-7-------------------------|
E|----------------------------------------------------------------------------|

Instrumental Ending:  Guitar 3  (Starts on 2nd time of other guitars)
e|4-4-4---4-4-4---4-4---2-2-2---2-2-2---2-2---5/7-5-4---4-5-7-5-4---4-5-------|
B|------5-------5-----5-------4-------4-----4---------5-----------5-----------|
G|----------------------------------------------------------------------------|
D|----------------------------------------------------------------------------|
A|----------------------------------------------------------------------------|
E|----------------------------------------------------------------------------|

Instrumental Ending Cont'd:  Guitar 3
e|4---4---4---4---4---4---4---4---2-2-2---2-2-2---2-2---5/7-5-4---4-5-7-5-9-7-|
B|--5---5---5---5---5---5---5---5-------4-------4-----4----------5------------|
G|----------------------------------------------------------------------------|
D|----------------------------------------------------------------------------|
A|----------------------------------------------------------------------------|
E|----------------------------------------------------------------------------|

Instrumental Ending Cont'd:  Guitar 3
e|4---4---4---4---4---4---4---4---5---5---5---5---5---5---5---5---------------|
B|--5---5---5---5---5---5---5---5---5---5---5---5---5---5---5---5-------------|
G|----------------------------------------------------------------------------|
D|----------------------------------------------------------------------------|
A|----------------------------------------------------------------------------|
E|----------------------------------------------------------------------------|

Instrumental Ending Cont'd:  Guitar 3
e|-12-11-9-7-9-7-7-5-4-0-4-5-4------------------------------------------------|
B|----------------------------------------------------------------------------|
G|----------------------------------------------------------------------------|
D|----------------------------------------------------------------------------|
A|----------------------------------------------------------------------------|
E|----------------------------------------------------------------------------|

Wow!!!  This is a long tab but it's pretty freaking accurate.  I hope 
you guys
enjoy this great new song by The Ataris!!!  This tab found only on The
Complete Ataris Guitar Tablature Archive!!!  E-mail us with any 
questions.


Текст, аккорды и табулатура для песни "Summer Wind Was Always Our Song", исполняет "Ataris".
Используемые в песне аккорды можно найти в разделе Как брать аккорды. Аккорды для шестиструнной гитары. Другие песни можно найти на нашем сайте, воспользовавшись алфавитным указателем вверху страницы.


 
Ошибка в тексте? Выделите ошибку и нажмите Ctrl+Enter