SUMMER WIND WAS ALWAYS OUR SONG - Ataris

tabbed by:Markisapunkrocker

INTRO:
|--------|--------|--------|--------|  
|--------|--------|--------|--------|  
|44444444|44444444|00000000|00000000|
|--------|--------|--------|--------|

|--------|--------|--------|--------|  
|--------|--------|--------|--------|  
|77777777|77777777|77777777|77777777|
|--------|--------|--------|--------|

|--------|--------|--------|--------|  
|--------|--------|--------|--------|  
|44444444|44444444|00000000|00000000|
|--------|--------|--------|--------|

|--------|--------|--------|--------|  
|--------|--------|--------|--------|  
|No-Bass-|--------|--------|--------|
|--------|--------|--------|--------|

Verse:
|--------|--------|--------|--------|  
|--------|--------|--------|--------|  
|77777777|77777777|44444444|44444444|
|--------|--------|--------|--------|

|--------|--------|--------|--------|  
|--------|--------|--------|--------|  
|22222222|22222222|00000000|00000000|
|--------|--------|--------|--------|

|--------|--------|--------|--------|  
|--------|--------|--------|--------|  
|77777777|77777777|44444444|44444444|
|--------|--------|--------|--------|

|--------|--------|--------|--------|  
|--------|--------|--------|--------|  
|22222222|22222222|00000000|00000000|
|--------|--------|--------|--------|

 1+2+3
|--------|--------|--------|--------|  
|--------|--------|--------|--------|  
|--------|--------|--------|--------|  
|22-22---|44-44---|55-55---|55-55---|

Choras:          
|--------|--------|--------|--------|  
|--------|--------|--------|--------|  
|44444444|44442420|00000000|00000000|
|--------|--------|--------|--------|

|--------|--------|--------|--------|  
|--------|--------|--------|--------|  
|22-2222-|44-4444-|55-5555-|55-5555-|
|--------|--------|--------|--------|

|--------|--------|--------|--------|  
|--------|--------|--------|--------|  
|44444444|44442420|00000000|00000000|
|--------|--------|--------|--------|

|--------|--------||  
|--------|--------||  
|00000000|0-------||
|--------|--------||

Repeat verse...

Repeat Choras...

Middle Eight:
|--------|--------|--------|--------|  
|--------|--------|--------|--------|  
|--------|--------|--------|--------|
|0-0-0000|0-0-0000|0-0-0000|0-0-0000|

|--------|--------|--------|--------|  
|--------|--------|----22-1|1-------|  
|--------|--------|0-0-----|--44--02|
|0-0-0000|0-0-0000|--------|--------|

|--------|--------|--------|--------|  
|--------|--------|--------|--------|  
|--------|--------|--------|--------|
|0-0-0000|0-0-0000|0-0-0000|0-0-0000|

|--------|--------|--------|--------|  
|--------|--------|----66-4|4-22-1--|  
|--------|--------|0-0-----|-------2|
|0-0-0000|0-0-0000|--------|--------|

|--------|--------|--------|--------|  
|--------|--------|--------|--------|  
|No-Bass-|--------|--------|--------|
|--------|--------|--------|--------|

|--------|--------|--------|--------|  
|--------|--------|--------|--------|  
|No-Bass-|--------|--------|--------|
|--------|--------|--------|--------|

|--------|--------|--------|--------|  
|--------|--------|--------|--------|  
|14------|--------|13------|14------|
|--------|--------|--------|--------|

 Elevens 1+2+3+4+
|----------------|--------|--------|--------|  
|1111111111111111|99999999|77777777|77777777|  
|----------------|--------|--------|--------|
|----------------|--------|--------|--------|

Play these: 4 times
|--------|--------|--------|--------|  
|--------|--------|--------|--------|  
|44444444|44444444|22222222|22222222|
|--------|--------|--------|--------|

|--------|--------|--------|--------|  
|--------|--------|--------|--------|  
|00000000|00000000|00000000|00000000|
|--------|--------|--------|--------|

then this...
|--------|--------|--------|--------|  
|--------|--------|--------|--------|  
|0-------|--------|--------|--------|
|--------|--------|--------|--------|

now i'm pretty sure that's the whole of it!!!!


Текст, аккорды и табулатура для песни "Summer Wind Was Always Our Song", исполняет "Ataris".
Используемые в песне аккорды можно найти в разделе Как брать аккорды. Аккорды для шестиструнной гитары. Другие песни можно найти на нашем сайте, воспользовавшись алфавитным указателем вверху страницы.


 
Ошибка в тексте? Выделите ошибку и нажмите Ctrl+Enter