-----------------------------------------------------------------
                       My Reply - The Ataris
-----------------------------------------------------------------
This tab is the author's work and represents their interpretation
of the song.
this is my first time to submit a tab....i hope you like my work.
hi to all my band mates, especially to jet and pedz!!! cheers!!!
Written by: Kris Roe

Tabbed by: Byron Andrada
Email: [email protected] 

Tuning: Standard: (E A D G B E) use distortion
-----------------------------------------------------------------
Intro

Gtr1
e|----10----------------10----------------------
B|------10-----------10-----10-----------10-----
G|--------12-11--12------------12-11--12--------
D|----------------------------------------------
A|----------------------------------------------
E|---------------------------------------------- Play 4 times

e|----10-------------10------------10-------------------
B|------10---------10--10--------10---10----------------
G|--------12-11-12-------12-11-12--------12-11----------
D|------------------------------------------------------
A|------------------------------------------------------
E|------------------------------------------------------ Play 4 times

Gtr2
e|-----|-----|-----|---------
B|-----|-----|-----|---------
G|--7--|--4--|--5--|---------
D|--7--|--4--|--5--|--5---7--
A|--5--|--2--|--3--|--5---7--
E|-----|-----|-----|--3---5-- Play twice (palm muted 1st time)

Verse:

Gtr2 (palm muted)
e|-----|-----|-----|-------
B|-----|-----|-----|-------
G|--7--|--4--|--5--|-------
D|--7--|--4--|--5--|--5----
A|--5--|--2--|--3--|--5----
E|-----|-----|-----|--3----

After that sequence, 

Gtr2 plays (palm muted)...         Gtr1 plays over the top...(four times)
e|-----|-----|-----|---------|-----10---------------10--------------------
B|-----|-----|-----|---------|-------10----------10-----10----------10----
G|--7--|--4--|--5--|---------|---------12-11--12-----------12-11--12------
D|--7--|--4--|--5--|--5---7--|--------------------------------------------
A|--5--|--2--|--3--|--5---7--|--------------------------------------------
E|-----|-----|-----|--3---5--|--------------------------------------------

Bridge:

e|--------|------------|--------|-------
B|--------|------------|--------|-------
G|-----7--|------------|-----7--|-------
D|--5--7--|--7---9-7---|--5--7--|--7----
A|--5--5--|--7---9-7---|--5--5--|--7----
E|--3-----|--5---7-5---|--3-----|--5---- Play twice

 Gtr1(lead part)
e|--10--10--10--10-9---9--9--9----9--9--9--------10----9----
B|----10--10--10-----10-10-10---10-10-10-10----10----10-----
G|-------------------------------------------12----11-------
D|----------------------------------------------------------
A|----------------------------------------------------------
E|----------------------------------------------------------

e|--10--10--10--10-9---9--9--9----9--9--9--9--9-------------
B|----10--10--10-----10-10-10---10-10-10-10-10-10-----------
G|----------------------------------------------------------
D|----------------------------------------------------------
A|----------------------------------------------------------
E|----------------------------------------------------------play twice

Chorus:

e|-----|-----|-----|------
B|-----|-----|-----|------
G|--7--|--4--|--5--|------
D|--7--|--4--|--5--|--5---
A|--5--|--2--|--3--|--5---
E|-----|-----|-----|--3---

e|-----|-----|-----|---------
B|-----|-----|-----|---------
G|--7--|--4--|--5--|---------
D|--7--|--4--|--5--|--5---7--
A|--5--|--2--|--3--|--5---7--
E|-----|-----|-----|--3---5--


Gtr2 plays......       Gtr1 plays.......(twice).
e|--------------------10--------------10------------------------
B|----------------------10----------10----10----------10--------
G|--7---------------------12-11--12----------12-11--12----------
D|--7-----------------------------------------------------------
A|--5-----------------------------------------------------------
E|--------------------------------------------------------------

Then Gtr2 plays......
e|-----|-----|-----|-----
B|-----|-----|-----|-----
G|--7--|--4--|--5--|-----
D|--7--|--4--|--5--|--5--
A|--5--|--2--|--3--|--5--
E|-----|-----|-----|--3--
(During this time Gtr1 plays the second riff of the intro)

e|-----|-----|-----|----------
B|-----|-----|-----|----------
G|--7--|--4--|--5--|----------
D|--7--|--4--|--5--|--5---7---
A|--5--|--2--|--3--|--5---7---
E|-----|-----|-----|--3---5---


Bridge:

e|--------|------------|--------|-------
B|--------|------------|--------|-------
G|-----7--|------------|-----7--|-------
D|--5--7--|--7---9-7---|--5--7--|--7----
A|--5--5--|--7---9-7---|--5--5--|--7----
E|--3-----|--5---7-5---|--3-----|--5---- Play twice
  
 Gtr1(lead part)
e|--10--10--10--10-9---9--9--9----9--9--9--------10----9----
B|----10--10--10-----10-10-10---10-10-10-10----10----10-----
G|-------------------------------------------12----11-------
D|----------------------------------------------------------
A|----------------------------------------------------------
E|----------------------------------------------------------

e|--10--10--10--10-9---9--9--9----9--9--9--9--9-------------
B|----10--10--10-----10-10-10---10-10-10-10-10-10-----------
G|----------------------------------------------------------
D|----------------------------------------------------------
A|----------------------------------------------------------
E|----------------------------------------------------------play twice

Final chorus:

e|-----|-----|-----|------
B|-----|-----|-----|------
G|--7--|--4--|--5--|------
D|--7--|--4--|--5--|--5---
A|--5--|--2--|--3--|--5---
E|-----|-----|-----|--3--- Play 3 times, then....

e|-----|-----|-----|----------
B|-----|-----|-----|----------
G|--7--|--4--|--5--|----------
D|--7--|--4--|--5--|--5---7---
A|--5--|--2--|--3--|--5---7---
E|-----|-----|-----|--3---5---

Gtr2 ends on...       Gtr1 (outro).......(three times)
e|---------------------10---------------10-------------------
B|-----------------------10----------10-----10----------10---
G|--7----------------------12-11--12-----------12-11--12-----
D|--7--------------------------------------------------------
A|--5--------------------------------------------------------
E|-----------------------------------------------------------

Gtr1 (outro continued).......
e|--10---------------10--------
B|----10-------------10--------
G|------12-11-12-11--11--------
D|-----------------------------
A|-----------------------------
E|-----------------------------
  hope you enjoy it!!! any suggstions? just email me at [email protected]


Текст, аккорды и табулатура для песни "My Reply", исполняет "Ataris".
Используемые в песне аккорды можно найти в разделе Как брать аккорды. Аккорды для шестиструнной гитары. Другие песни можно найти на нашем сайте, воспользовавшись алфавитным указателем вверху страницы.


 
Ошибка в тексте? Выделите ошибку и нажмите Ctrl+Enter