hey everyone, i messed up on the last one, i remade it though, i think its a lot better

-------------------------------------------------------------------------------
			     My Reply - The Ataris
-------------------------------------------------------------------------------
Tabbed by: Robbie Lewis
Email: [email protected]

Tuning: standard
   intro:
e|----10--------------10-----------------------------------------------------|
B|-------10-8----8-10----10-8----8-10----(X4)--------------------------------|
G|------------11--------------11---------------------------------------------|
D|---------------------------------------------------------------------------|
A|---------------------------------------------------------------------------|
E|---------------------------------------------------------------------------|
    then(with faster strumming) with chorus in background:
e|-----10--------------10--------------10------------------------------------|
B|--------10-8----8-10----10-8----8-10----10-8-------------------------------|
G|-------------11--------------11--------------11----(X4)--------------------|
D|---------------------------------------------------------------------------|
A|---------------------------------------------------------------------------|
E|---------------------------------------------------------------------------|
    verse 1:
e|----------------------------------------|----|---------------------------------------------|
B|----------------------------------------|----|---------------------------------------------|
G|-----7--------4--------5----------------|----|---------------------------------------------|
D|-----7-(X16)--4-(X16)--5-(X16)--5-------|(X4)|--intro comes in here after 2nd time playing-|
A|-----5--------2--------3--------5-(X16)-|----|---------------------------------------------|
E|--------------------------------3-------|----|---------------------------------------------|
pm..............................................

    chorus:
e|----------------------------------------|----|--------------------------------|
B|----------------------------------------|----|--------------------------------|
G|-----7--------4--------5----------------|----|--------------------------------|
D|-----7-(X16)--4-(X16)--5-(X16)--5-------|(X2)|--intro comes in here-----------|
A|-----5--------2--------3--------5-(X16)-|----|--------------------------------|
E|--------------------------------3-------|----|--------------------------------|
    verse 2: same as chorus
    outro:
e|----10--------------10-------------------10--------------10----------------|
B|-------10-8----8-10----10-8----8-10-(X3)----10-8----10-8-10----------------|
G|------------11--------------11-------------------11------11----------------|
D|---------------------------------------------------------------------------|
A|---------------------------------------------------------------------------|
E|---------------------------------------------------------------------------|

| /  slide up
|   slide down
| h  hammer-on
| p  pull-off
| ~  vibrato
| +  harmonic
| x  Mute note
===============================================================================


Текст, аккорды и табулатура для песни "My Reply", исполняет "Ataris".
Используемые в песне аккорды можно найти в разделе Как брать аккорды. Аккорды для шестиструнной гитары. Другие песни можно найти на нашем сайте, воспользовавшись алфавитным указателем вверху страницы.


 
Ошибка в тексте? Выделите ошибку и нажмите Ctrl+Enter