I only have Guitar 1!!Sorry,I'm no good,I've only played for 1 year!!First Tab!!
[email protected]

Intro:  Guitar 1       Chorus: Guitar 1 (Just about the same)
e|-----------------|---------------------------
B|-----------------|---------------------------
G|---6--8--4-------|--------6--(7)---8---4-----
D|4--6--8--4-------|----4---6--(7)---8---4-----
A|4--4--6--2-------|----4---4--(5)---6---2-----
E|2----------------|----2----------------------
                             Listen for (775) Chord
                           I'm not sure if played in verse   
		
Riff A:(listen to the song to hear this)
		e|-7-6---9-7-6-7-6--|
		B|-----7------------|
		G|------------------|
		D|------------------|
		A|------------------|
		E|------------------|
Verse:  (Repeat Intro 2x with P.M)  
Chorus:  (Repeat 2x) 
Repeat Verse
Part After Verse:  Guitar 1  (2x)  (If I had one wish...)
e|---------------------------------------------------------------------------
B|---------------------------------------------------------------------------
G|8-8-8-8--8-6--4-4-4-4--4-3--------------------------6-6-6-6-6-6-6-6-6-6-6-6
D|8-8-8-8--8-6--4-4-4-4--4-3--4-4-4-4-4-4-4-4-4-4-4-4-6-6-6-6-6-6-6-6-6-6-6-6
A|6-6-6-6--6-4--2-2-2-2--2-1--4-4-4-4-4-4-4-4-4-4-4-4-4-4-4-4-4-4-4-4-4-4-4-4
E|----------------------------2-2-2-2-2-2-2-2-2-2-2-2------------------------
    (Figure out the strumming) 
Next Part:  Guitar 1 (The things you make me...)
e|---------------------------------------------------------------------------
B|---------------------------------------------------------------------------
G|-----4---------6--------------4----6---------------------------------------
D|6----4----4----6----6----8----4----6---------------------------------------
A|6----2----4----4----6----8----2----4---------------------------------------
E|4---------2---------4----6-------------------------------------------------
 PM   PM   PM   PM   PM   PM   PM   PM
Repeat Chorus:  2x  
Solo:  2x (Not so sure here!!)
e|-----------------------------7-6---9-7-6--7-6---9-7-6----------------------
B|-7-6-7-6-7-6-7-9-7-6-7-6-7-6-----7------------7-------7-6-7-9-7-6-7-6-7-9--
G|---------------------------------------------------------------------------
D|---------------------------------------------------------------------------
A|---------------------------------------------------------------------------
E|---------------------------------------------------------------------------
Solo Cont'd  
e|---------------------------------------------------------------------------
B|-7-6-7-6-7-9-7-6-4---------------------------------------------------------
G|---------------------------------------------------------------------------
D|---------------------------------------------------------------------------
A|---------------------------------------------------------------------------
E|---------------------------------------------------------------------------
Ending: Play Intro Part  (2x)
End On:  Both Guitars
e|-------|
B|-------|
G|-------|
D|---4---|
A|---4---|
E|---2---|


Текст, аккорды и табулатура для песни "I Wont Spend Another Night Alone", исполняет "Ataris".
Используемые в песне аккорды можно найти в разделе Как брать аккорды. Аккорды для шестиструнной гитары. Другие песни можно найти на нашем сайте, воспользовавшись алфавитным указателем вверху страницы.


 
Ошибка в тексте? Выделите ошибку и нажмите Ctrl+Enter