Ataris
Hey Kid
Daniel182

Intro:
E|---123--- 

Verse 
G|-------------7---7-----9---9---5---4----| 
D|---5---5--------------------------------| 
A|---------4/5---5---5/7---7---3---2------|       
E|-3---3----------------------------------| 

G|-------------7---7---4---4---5---4---| 
D|---5---5-----------------------------| 
A|---------4/5---5---2---2---3---2-----| 
E|-3---3-------------------------------|

Chorus:
G|----------------------------------------| 
D|----------------------------------------| 
A|-----5>--7>--3>-2>----5>-2>-3>-2>-------| 
E|--3>---------------3>-------------------| 

Bridge 
G|----------------------------------------| 
D|----------------------------------------| 
A|--10>-9>-10>--9--5--3>-2>-3>------------| 
E|----------------------------------------| 

End on E:-3- 

There are a couple fills thrown in but you can figure 
those out on your own
End with E:-3~-)


Текст, аккорды и табулатура для песни "Hey Kid", исполняет "Ataris".
Используемые в песне аккорды можно найти в разделе Как брать аккорды. Аккорды для шестиструнной гитары. Другие песни можно найти на нашем сайте, воспользовавшись алфавитным указателем вверху страницы.


 
Ошибка в тексте? Выделите ошибку и нажмите Ctrl+Enter