Artist:		The Ataris 
Song:		Eight of nine [acoustic]
Album:		Punk Goes Acoustic
Tabbed by:	Per Karlsson [[email protected]]

Tuning:		Standard


e|---------------------------------------------------------------------------|
B|--------------------------------------------------5------------------------|
G|-----------1--------------5---------------------6-6------------------------|
D|---------2-2--------------6---------------------7-6------------------------|
A|---------2-2--------------6---------------------7-4------------------------|
E|-----------0--------------4---------------------5--------------------------|
             These Hospital walls are the palest of white.    

e|---------------------------------------------------------------------------|
B|-5----------------------------------------2--------------------------------|
G|-6------------1---------------------------4-----------6--------------------|
D|-6------------2---------------------------4-----------7--------------------|
A|-4------------2---------------------------2-----------7--------------------|
E|--------------0---------------------------------------5--------------------|
   Here in this desert, they're reciting my last rights. The smell of these 

e|---------------------------------------------------------------------------|
B|-2-------------------------------------------------------------------------|
G|-4---------------------1----------------------------5-----------------6----|
D|-4---------------------2----------------------------6-----------------7----|
A|-2---------------------2----------------------------6-----------------7----|
E|-----------------------0----------------------------4-----------------5----|
   halls bring temporary comfort, as the oxygen flows through my blood. 

e|---------------------------------------------------------------------------|
B|--------2------------------------------------------------------2-----------|
G|-6------4----------------2-------5--------------6--------------4------2----|
D|-7------4----------------2-------6--------------7--------------4----4------|
A|-7------2----------------2-------6--------------7--------------2--2--------|
E|-5-----------------------0-------4--------------5--------------------------|
   el corazon was poisoned tonight.  She's on her eight of nine.

e|---------------------------------------------------------------------------|
B|----------------------------------------------------------------------2-2--|
G|-1--------------------------------------5------------------------6----4-2--|
D|-2--------------------------------------6------------------------7----4-4--|
A|-2--------------------------------------6------------------------7----2-2--|
E|-0--------------------------------------4------------------------5---------|
   When half of all your prayers are insincere, the other half are lies.

e|---------------------------------------------------------------------------|
B|-------------------------------------------5--------------------7----------|
G|-1------------5--------------------6-------6--------------------9----------|
D|-2------------6--------------------7-------6--------------------9----------|
A|-2------------6--------------------7-------4--------------------7----------|
E|-0------------4--------------------5---------------------------------------|
   Here is this watermark under this bridge,   the point where it crested, 

e|---------------------------------------------------------------------------|
B|-7---------------2---------------------------------------2-----------------|
G|-9---------------4--------------6------------------------4-----------------|
D|-9---------------4--------------7------------------------4-----------------|
A|-7---------------2--------------7------------------------2-----------------|
E|--------------------------------5------------------------------------------|
   rolled back and drifted into the sea. I climb from this wreckage as the 

e|---------------------------------------------------------------------------|
B|-------------------------------------------------------2-------------------|
G|-1---------------------5-------------6-----------------4-------------------|
D|-2---------------------6-------------7-----------------4-------------------|
A|-2---------------------6-------------7-----------------2-------------------|
E|-0---------------------4-------------5-------------------------------------|
   smoke begins to clear from my lungs.   The closest of close calls has 

e|---------------------------------------------------------------------------|
B|-2----------5-----------------------7--------------------------2-----------|
G|-4----------6-----------------------9--------------------------4-----------|
D|-4----------6-----------------------9--------------------------4-----------|
A|-2----------4-----------------------7--------------------------2-----------|
E|---------------------------------------------------------------------------|
   happened tonight. It's time that I made things right, for the first time,

e|---------------------------------------------------------------------------|
B|-2-----------------2-5-------------------7-----------------2---------------|
G|-4---------6-------4-6-------------------9-----------------4---------------|
D|-4---------7-------4-6-------------------9-----------------4---------------|
A|-2---------7-------2-4-------------------7-----------------2---------------|
E|-----------5---------------------------------------------------------------|
   since the last time. Let this moment of clarity lift this curse that 

e|---------------------------------------------------------------------------|
B|---------------------------------------------------------------------------|
G|---------------6-6-6----6-6-6----------------------------------------------|
D|---------------7-7-7----7-7-7----------------------------------------------|
A|---------------7-7-7----7-7-7----------------------------------------------|
E|---------------5-5-5----5-5-5----------------------------------------------|
   has been cast upon me.

e|---------------------------------------------------------------------------|
B|-------------------2-------------------------------------------------------|
G|-6-----------------4----------1-----------------------------5--------6-----|
D|-7-----------------4----------2-----------------------------6--------7-----|
A|-7-----------------2----------2-----------------------------6--------7-----|
E|-5----------------------------0-----------------------------4--------5-----|
   So appreciate the good times, but don't take the worse for granted,

e|---------------------------------------------------------------------------|
B|-----------------2---------------------------------------------------------|
G|--6--------------4---------------------------------------------------------|
D|--7--------------4---------------------------------------------------------|
A|--7--------------2---------------------------------------------------------|
E|--5------------------------------------------------------------------------|
   'cause you only get so many second chances.  

Bridge:                 
e|------------------|       
B|------------------|
G|------------------|
D|-1------5-6-------|
A|-2------6-7-------|
E|-2------6-7-------|    
B|-0------4-5-------|

Ending:
e|------0-----------|    
B|-----0------------|
G|----1-------------|
D|---2--------------|
A|--2---------------|
E|-0----------------|


Текст, аккорды и табулатура для песни "Eight Of Nine", исполняет "Ataris".
Используемые в песне аккорды можно найти в разделе Как брать аккорды. Аккорды для шестиструнной гитары. Другие песни можно найти на нашем сайте, воспользовавшись алфавитным указателем вверху страницы.


 
Ошибка в тексте? Выделите ошибку и нажмите Ctrl+Enter