#----------------------------------PLEASE NOTE--------------------------------#
#This file is the author's own work and represents their interpretation of the#
#song. You may only use this file for private study, scholarship, or research.#
#-----------------------------------------------------------------------------#

Author/Artist: The Ataris
Title: Between You and Me
Transcribed by: Loy Pearce
Email: [email protected]

standard tuning

-----------------------------|------------------------------------------------
---14---14----15----14h15-14-|-14----14----17----14h15--14--------------------
-----14----14----14----------|----14----14----14------------------------------
-----------------------------|------------------------------------------------
-----------------------------|------------------------------------------------
-----------------------------|------------------------------------------------
    Intro                   Guitar 1                                          

-----------------------------|------------------------------------------------
---14---14----15----14h15-14-|-14----14----17-17-17-17-17-17-17---------------
-----14----14----14----------|----14----14------------------------------------
-----------------------------|------------------------------------------------
-----------------------------|------------------------------------------------
-----------------------------|------------------------------------------------
    Intro continued         Guitar 1                                          

------------------------------------------------------------------------------
------------------------------------------------------------------------------
-----6-6-6-6-7-7-7-7----------------------------------------------------------
-----6-6-6-6-7-7-7-7-7-7-7-7-2-2-2-2------------------------------------------
-----4-4-4-4-5-5-5-5-7-7-7-7-2-2-2-2------x2----------------------------------
---------------------5-5-5-5-0-0-0-0------------------------------------------
     Intro                  Guitar 2                                          

---------------------------------------|--------------------------------------
---------------------------------------|--------------------------------------
---------------------------------------|-------------------------99999999-----
------6-----6h7-7----7---6---7p6-------|---6-----6h7-7---7777777799999999-----
----4---5------------------------7--x2-|-4---5-----------7777777777777777-----
-------------------5---0---------------|-----------------55555555-------------
     Verse                                     Palm muted................

-----------------------------------|-----------------------|------------------
-----------------------------------|-----------------------|------------------
--------------------------7-7/9-9--|----7-77-777/99-9-xxxx-|-14/13/9/11/9-----
---7--77-7--6-66-6-4-44-4-7-7/9-9--|----7-77-777/99-9-xxxx-|-xx/xx/x/xx/x-----
---7--77-7--6-66-6-4-44-4-5-5/7-7--|----5-55-555/77-7-xxxx-|-12/11/7/-9/7-----
---5--55-5--4-44-4-2-22-2----------|-----------------------|------------------
     Chorus--Play this part BOTH         Play this the        Play this the
             TIMES                      FIRST TIME ONLY      SECOND TIME ONLY
   

------------------------------------------------------------------------------
------------------------------------------------------------------------------
---6-7---9--------------------------------------------------------------------
---6-7-7-9---x2---------------------------------------------------------------
---4-5-7-7--------------------------------------------------------------------
-------5----------------------------------------------------------------------
     Ending--I didn't try to tab the number of strokes.    Guitar 1           

--------------------------------------|---------------------------------------
--------------------------------------|---------------------------------------
---14---------------------------------|--13-----14~---------------------------
---14--xalot--------------------------|--14-x4--14~---------------------------
---12---------------------------------|--12-----12~---------------------------
--------------------------------------|---------------------------------------
 Ending   Guitar 2 

--------------------------------------|---------------------------------------
--------------------------------------|---------------------------------------
--------------------------------------|---------------------------------------
-----6---7---6h7-7-----7---6---7p6----|--6---7---6h7------7---9---9---9-------
---4---5---5---------0---7---7-----7--|4---5---5--------0---7---7---7---------
--------------------------------------|---------------------------------------
 Last instrumental part                                                       

------------------------------------------------------------------------------
------------------------------------------------------------------------------
----------------------------------------5-------------------------------------
-----6---7---6h7-7-----7---6---7p6------5-


Текст, аккорды и табулатура для песни "Between You And Me", исполняет "Ataris".
Используемые в песне аккорды можно найти в разделе Как брать аккорды. Аккорды для шестиструнной гитары. Другие песни можно найти на нашем сайте, воспользовавшись алфавитным указателем вверху страницы.


 
Ошибка в тексте? Выделите ошибку и нажмите Ctrl+Enter