Song:  Between You and Me
Band:  The Ataris
Author:  Kevin Paolozzi
E-mail:  [email protected]

[email protected]===========

Intro

G  |--------------------------------------------------------------------|
D  |--------------------------------------------------------------------|
A  |---4444--5555-------------------4444--5555----------7777------------|
E  |--------------------5555--0000-------------------5555---------------|

Beginning Riff  

G  |----------------------------------------------------------------------------|
D  |----------------------------------------------------------------------------|
A  |--4-------5------------------------4------5------------7--------------------|
E  |-------------------5-------0---------------------5--------------------------|

G  |-------------------------------------------------------------------------|
D  |-------------------------------------------------------------------------|
A  |--4--------5------------------------4------5--------------77777----------|
E  |-------------------5-------0-----------------------5555------------------|


Pre Chorus

G  |-----------------------------------------------------------------------|
D  |-----------------------------------------------------------------------|
A  |---------------------------4444--55-((Pause Here))---5555--7777--xxxx--|
E  |--5555--4444--2222-----------------------------------------------------|


G  |------------------------------------------------------------------------|
D  |------------------------------------------------------------------------|
A  |---------------------------4444--555555--7777---------------------------|
E  |--5555--4444--2222------------------------------------------------------|

(x2)

G  |--------------------------------------------------------------------|
D  |--------------------------------------------------------------------|
A  |---4444--5555-------------------4444--5555----------7777------------|
E  |-------------------5555--0000-------------------5555----------------|


G  |----------------------------------------------------------------------------|
D  |----------------------------------------------------------------------------|
A  |--4--------5------------------------4------5------------7-------------------|
E  |-------------------5-------0----------------------5-------------------------|




G  |-------------------------------------------------------------------------|
D  |-------------------------------------------------------------------------|
A  |--4--------5------------------------4------5--------------77777----------|
E  |-------------------5-------0-----------------------5555------------------|


G  |----------------------------------------------------------------------|
D  |----------------------------------------------------------------------|
A  |---------------------------4444--55((Pause Here))---5555--7777--xxxx--|
E  |--5555--4444--2222----------------------------------------------------|


G  |------------------------------------------------------------------------|
D  |------------------------------------------------------------------------|
A  |---------------------------4444--555555--7777---------------------------|
E  |--5555--4444--2222------------------------------------------------------|

Chorus  “In my mind!…”

G  |----------------------------------------------------------------------|
D  |----------------------------------------------------------------------|
A  |---4444--5555---4444--5555--------------------------------------------|
E  |----------------------------------------------------------------------|

Outro

G  |---------------------------------------------------------------------------|
D  |---------------------------------------------------------------------------|
A  |--4--------5------------------------4------5-----7-------------------------|
E  |-------------------5-------0-----------------------------------------------|

============================================================================


Текст, аккорды и табулатура для песни "Between You And Me", исполняет "Ataris".
Используемые в песне аккорды можно найти в разделе Как брать аккорды. Аккорды для шестиструнной гитары. Другие песни можно найти на нашем сайте, воспользовавшись алфавитным указателем вверху страницы.


 
Ошибка в тексте? Выделите ошибку и нажмите Ctrl+Enter