-------------------------------------------------------------------------------
			     BETWEEN YOU AND ME - The Ataris
-------------------------------------------------------------------------------

Tabbed By: JON BILLS ([email protected])

In my opinion this is one of the Atari's best songs, and it would
really make me mad to hear someone play this kickass song wrong.  The other
tab posted is extremely wrong.  Not even the chords are correct, and that's
really the only reason I am doing this one.  If you would like me to give 
you other CORRECT tabs e-mail me.

Intro:
Guitar 1
e|---------------------------------------------------------------------------|
B|14-14-15-14h15p14---14---17---14h15p14-14---14---15-14h15p14-14-1717171717-|
G|-14-14-14-------------14---14---14----------------14---14---14-------------|
D|---------------------------------------------------------------------------|
A|---------------------------------------------------------------------------|
E|---------------------------------------------------------------------------|

Guitar 2(just the chords not the strumming pattern. listen to the cd for 
that.)
e|---------------------------------------------------------------------------|
B|---------------------------------------------------------------------------|
G|-6-6-7-7------------------6-6-7-7-----9-9----------------------------------|
D|-6-6-7-7-7-7-2-2----------6-6-7-7-7-7-9-9----------------------------------|
A|-4-4-5-5-7-7-2-2----------4-4-5-5-7-7-7-7----------------------------------|
E|---------5-5-0-0------------------5-5--------------------------------------|


Verse(one guitar only)(use these chords but just pluck the strings instead 
of strumming chords)
e|---------------------------------------------------------------------------|
B|---------------------------------------------------------------------------|
G|-6-6-7-7--------------------6-6-7-7-----9-9--------------------------------|
D|-6-6-7-7-7-7-2-2------------6-6-7-7-7-7-9-9--------------------------------|
A|-4-4-5-5-7-7-2-2------------4-4-5-5-7-7-7-7--------------------------------|
E|---------5-5-0-0--------------------5-5------------------------------------|

Chorus:(can be played by one or two guitars. this is the one guitar version)
e|---------------------------------------------|
B|---------------------------------------------|
G|---------------6-6-999|THE  |-7-777-99999xxxx|
D|-7-7-6-666-4-4-4-4-777|STOP |-7-777-99999xxxx|
A|-7-7-6-666-4-4-4-4-777|     |-5-555-77777xxxx|
E|-5-5-4-444-2-2--------|     |----------------|


e|------------------------------------------|
B|------------------------------------------|
G|---------------6-6-999-14---13---9---11--9|
D|-7-7-6-666-4-4-4-4-777-12---11---7---9---7|
A|-7-7-6-666-4-4-4-4-777-12---11---7---9---7|
E|-5-5-4-444-2-2----------------------------|
(to play the chorus with two guitars simply, play the normal chords(A to 
G#/F#/D/High E)
and hold them while guitar 2 plays the higher octave parts at the appropriate times)

repeat verse:

repeat chorus:

ending(IN MY MIND!!!!):stop is on the A. then at the end of the third time 
through the ending go back to the A for another stop.

guitar 1
e|---------------------------------------------------------------------------|
B|---------------------------------------------------------------------------|
G|-6-6-7-7-----9-9------------6-6-7-7-----9-9--------------------------------|
D|-6-6-7-7-7-7-9-9------------6-6-7-7-7-7-9-9--------------------------------|
A|-4-4-5-5-7-7-7-7------------4-4-5-5-7-7-7-7--------------------------------|
E|---------5-5------------------------5-5------------------------------------|

guitar 2
e|---------------------------------------------------------------------------|
B|---------------------------------------------------------------------------|
G|--14-14-14-14-14-13-14-14-14-14-14-13-14-14-14-14-14-14-13-14--------------|
D|--12-12-12-12-12-12-12-12-12-12-12-12-12-12-12-12-12-12-12-12--------------|
A|--12-12-12-12-12-12-12-12-12-12-12-12-12-12-12-12-12-12-12-12--------------|
E|---------------------------------------------------------------------------|

Soft ending:  Same as verse(one guitar only)

I am positive that this tab is 100% correct.  It is easy to figure out I am
surprised that the other guy that attempted to tab it was so far off.  My
band covers one song per show and we did this once.  It turned out really
great and it is still one of my favorites.   Send your e-mails to
[email protected]   .  I would be happy to send other songs upon 
request.
Jon Bills

===============================================================================


Текст, аккорды и табулатура для песни "Between You And Me", исполняет "Ataris".
Используемые в песне аккорды можно найти в разделе Как брать аккорды. Аккорды для шестиструнной гитары. Другие песни можно найти на нашем сайте, воспользовавшись алфавитным указателем вверху страницы.


 
Ошибка в тексте? Выделите ошибку и нажмите Ctrl+Enter