All you  can ever learn is what you already know
Written bu Kris Roe

Yet another kick ass song from the Ataris

INTRO

e-X-----X----X----X-----]
B-X-----X----X----X-----]
G-7-----7----7----2-----]
D-7-X8--7-X8-7-X8-2-X8--]
A-5-----9----5----0-----]
E-X-----X----X----X-----]

VERSE

e-X-----X-----X-----X-----]
B-X-----X-----X-----X-----]
G-7-----9-----4-----2-----]
D-7-X16-9-X16-4-X16-2-X16-] X2
A-5-----7-----2-----0-----]
E-X-----X-----x-----X-----]

CHORUS

e-X-----X-----X-----X-----]
B-X-----X-----X-----X-----]
G-4-----X-----4-----2-----]
D-4-X16-2-X16-4-X16-2-X16-] X2
A-2-----2-----2-----0-----]
E-X-----0-----X-----X-----]

REPEAT INTRO

REPEAT VERSE

REPEAT CHORUS

BRIDGE

e-X-----X-----X-----X-----]
B-X-----X-----X-----X-----]
G-4-----X-----4-----2-----]
D-4-X16-2-X16-4-X16-2-X16-] X2
A-2-----2-----2-----0-----]
E-X-----0-----X-----X-----]

ENDING

e-X----X----X----X----]
B-X----X----X----X----]
G-2----X----2----2----]
D-4-X2-2-X2-2-X2-2-X2-] X2
A-4----2----4----0----]
E-X----0----X----X----]

e-X-----X-----X-----X-----]
B-X-----X-----X-----X-----]
G-4-----X-----4-----2-----]
D-4-X8--2-X8--4-X8--2-X8--] X6 
A-2-----2-----2-----0-----]
E-X-----0-----X-----X-----]

LYRICS

Verse
Is this how it was intended?
The sunrise over smoke stacks in the Midwest
The beauty of the abandoned factory.
Christmas lights blinking on and off all out of time in what used to be,
your pink house dreams of a Middle class America

Chorus
I'm trying to believe in you 
but all these satellites and shattered dreams are blocking out my view
Please don't forget who you really are
'Cos nothing really matters when we're gone

Verse
Fell in love with his Keno waitress
They honeymooned in vegas
They were married by the drive-up window.
Trailer parks, neon signs and an empty box of lucky stripes
all used up on the dashboard of America

Chorus
I'm trying to believe in you
but his world sild it's faith for parking-lots and drunk sincerity
Please don't forget how small we really are
nothing really matters when we're ...

Ending
You'll be saddened to know
the train tracks you once walkd as a young boy
are now nothng but a graveyard.

Please don't forget how small we really are 
nothing really matters when we're gone

I'm trying to believe in you ( repeated )

Tabbed by Bex


Текст, аккорды и табулатура для песни "All You Can Ever Learn Is What You Already Know", исполняет "Ataris".
Используемые в песне аккорды можно найти в разделе Как брать аккорды. Аккорды для шестиструнной гитары. Другие песни можно найти на нашем сайте, воспользовавшись алфавитным указателем вверху страницы.


 
Ошибка в тексте? Выделите ошибку и нажмите Ctrl+Enter