tabbed by:	Rick Peeters

song:		1,2,3,4.
artist:		The Ataris,
album:		Anywhere but here




very simple, but very cool.
just like all the other ataris songs.

1)-------------------------------------------------------------
2)-------------------------------------------------------------
3)-------------------------------------------------------------
4)--------------------7---7---------------7---7----------------
5)-----------77777777-5-7-5------77777777-5-7-5----------------
6)-----------55555555---5--------55555555---5------------------
   1234!!!!!!

1)----------------------------------------------------------
2)----------------------------------------------------------
3)----------------------------------------------------------
4)--------------------7---7--99999999999--------------------
5)-----------77777777-5-7-5--77777777777--------------------
6)-----------55555555---5-----------------------------------


1)----------------------------------------------------------
2)----------------------------------------------------------
3)----------------------------------------------------------
4)----------------------------------------------------------
5)--55555555-7-5-7------5/77777-5/77777---------------------
6)--33333333-5-3-5------3/55555-3/55555---------------------

1)----------------------------------------------------------
2)----------------------------------------------------------
3)----------------------------------------------------------
4)-------------------99999999999----------------------------
5)--55555555-7-5-7---77777777777-7--------------------------
6)--33333333-5-3-5---------------5--------------------------
                                 #
# = hold this chord, pick scratch and start again after 1,2,3,3.

so, that's it!
if you've got any suggestions, tips, questions or whatever

email me: [email protected]

peace,
love,
empathy,
hope,
passion,
faith.........


Текст, аккорды и табулатура для песни "1 2 3 4", исполняет "Ataris".
Используемые в песне аккорды можно найти в разделе Как брать аккорды. Аккорды для шестиструнной гитары. Другие песни можно найти на нашем сайте, воспользовавшись алфавитным указателем вверху страницы.


 
Ошибка в тексте? Выделите ошибку и нажмите Ctrl+Enter