AT THE GATES - The Dying
                      
                         Version 666 - February 2002

Transcribed by: Rick Ledesma (Statues Turned Dust)
                This is my first tab hope you enjoy...
           

For Questions, Comments, Corrections, or Newest Version;
          please contact me at [email protected]

Check Out the Official At The Gates Webpage at:
               http://www.atthegates.com 

Check Out Death Warp, With More Transcriptions On It:
               http://www.sorrowsend.com/DeathWarp/

.  - palm mute                  /  - slide up to
  - slide down to              ~  - vibrato
h  - hammer on                  b  - bend
p  - pull off                        Suffixes for bend
ph - pinch harmonic                      f - full bend    h - half bend
*  - see comment                         r - release      t - tap bend
X  - percussion mute                     ~ - vibrato bend
@  - slight palm mute           # - ghost note, sustained note
d  - downstroke
u  - upstroke

TUNING: B (Every string down 2.5 steps)


Opening Riff
|-------------------|
|-------------------|
|-----5-------4-----|
|-4---5---4------4--|
|-4---3---4---2-----|
|-2-------2------2--|

Riff A
|-----------------------------------------------|
|-----------------------------------------------|
|-----------------------------------------------|Gtr:1
|-------------------------------------------7~--|  
|-9h10p9-----10h12p10-----12h14p12-----9-10-----|
|-------0000---------0000---------0000----------|
|                                               |
|                                               |
|-----------------------------------------------|
|-----------------------------------------------|
|-----------------------------------------------|Gtr:2
|-2----------5------------7------------9--------|
|-----------------------------------------------|
|-0----------3------------5------------7--------|


Play Riff A a total of 4 times
Note-Guitar 2 doesnt come in until after 2nd repeat of Riff A

Riff B:
|--------------------------------------------------------------------|
|--------------------------------------------------------------------|
|--------------------------------------------------------------------|Gtr:1&2
|--------------------------------------------------------------------|
|----3-2------------3-2---------------2-3------3-5------2-3------3-5-|
|-000-0--333333--000-0--333333----000------000------000------000-----|
 

Play Riff B a total of two times

Riff C 
|---------------------------------------------|
|---------------------------------------------|
|---------------------------------------------|Gtr:1&2
|-----7/9-------109/10------7/9--------------|
|-----5/7--------87/8-------5/7---3-2-0------|
|-000------0-000---------000-------------4~---|

Play Riff C a total of 4 times
Play Riff B 2 times
Play Riff C 4 times
Play Riff A 4 times

Fill 1

|---------|
|---------|
|---------|
|-4-------|
|-2---4---|
|-----2---|
        

Play Fill 1 one time
Play Opening Riff 2 times


Solo

|-----------------------------------------------------------------------------|
|--/12~-10---------------------------------------------------------------/10~-|
|----------12-11-9-8-8h9-------------------------------------------7-9-11-----| 
|------------------------/9~-7-------------------------------7-9-10-----------|
|-----------------------------10-9-9h10p9-7-6-6h7--7~--7-9-10-----------------|
|-----------------------------------------------------------------------------|


Solo cont.
|---------------------------------|
|--8h9p8-10~--8h9p89-12--7-5-4----|
|------------------------------4~-|
|---------------------------------|
|---------------------------------|
|---------------------------------|


Under Solo
 
|---------------------|               |-------------|
|---------------------|               |-------------|
|---------------------|2x then onto   |-------------|2x
|---------------------|               |--2--5--7--9-|
|---------------------|               |-------------| 
|-0000-3333-5555-7777-|               |--0--3--5--7-|
  

Play Riff C 4 times
Play Riff A 4 Times
Play Fill 1 one time


the last riff doesnt sound too hard but im tired of typing if anyone doesnt post it soon i'll get back to it,also if anyone is planning or has anymore At The Gates tabs(besides the ones already posted by Anders)let me know,but for now enjoy the tab >=]


Текст, аккорды и табулатура для песни "The Dying", исполняет "At The Gates".
Используемые в песне аккорды можно найти в разделе Как брать аккорды. Аккорды для шестиструнной гитары. Другие песни можно найти на нашем сайте, воспользовавшись алфавитным указателем вверху страницы.


Слушать онлайн The Dying


At The GatesThe Dying на Яндекс.Музыке


 
Ошибка в тексте? Выделите ошибку и нажмите Ctrl+Enter