Intro:
guitar1           
|------0-------0-|
|88888-0-88888-0-|
|77777-0-77777-0-|
|00000-0-00000-0-|
|77777---77777---|
|00000---00000---|


Verse:
|--------------------------
|------0-----0----0----0---
|----0-----0----0----0-----
|--9-----9-----9---9----9--
|--------------------------
|--------------------------x4

--------14--|
----15------|
-14---------|
------------|
------------|
------------|

Chorus:
guitar1+2:4x
|00000-0---------|-------------------------------|
|88888-0-77777---|-------------------------------|
|77777-0-77777-2-|10101010101010105-5-5-5-5-5-5-5|
|00000-0-77777---|10101010101010105-5-5-5-5-5-5-5|
|77777-x-55555-2-|8-8-8-8-8-8-8-8-3-3-3-3-3-3-3-3|
|00000-x---------|-------------------------------|

Prelude:
guitar1:2x
|----------------|----------------|
|---0---0---0---0|---0---0---0---0|
|--0---0---0---0-|--0---0---0---0-|
|-2---2---2---2--|-2---2---2---2--|
|0-------0-------|0---------------| 
|----------------|----3---2---0---|

2ndVerse:
GTR1
PM------------------------------------------------
|--------------------------------|----------------| |
|--------------------------------|----------------| |
|--------------------------------|----------------|.|
|11111111111111119-9-9-9-9-9-9-9-|7777777755555555|.|
|13131313131313131111111111111111|9999999977777777| |
|--------------------------------|----------------| |

|--------------------------------|----------------| |
|0-0-0-0-0-0-0-0-0-0-0-0-0-0-0-0-|0000000000000000| |
|0-0-0-0-0-0-0-0-0-0-0-0-0-0-0-0-|0000000000000000|.|
|11111111111111119-9-9-9-9-9-9-9-|7777777755555555|.|
|13131313131313131111111111111111|9999999977777777| |
|--------------------------------|----------------| |

guitar2:4x                       NH
|--12-0---0-10-0----12-0------------12-0---0-10-0------------------------|
|-------0--------12------0---12-0-7------0--------10-12---------12-13-12-|
|-------------------------------------------------------12-11-9----------|
|------------------------------------------------------------------------|
|------------------------------------------------------------------------|
|------------------------------------------------------------------------|

2ndVerse:
guitar1...                                     delay             
|---------------------------------------------7-8-7-
|----------13-----------12----------10--------7-8-7-
|---------------------------------------------------
|--x-x-x-x-----x-x-x-x-----x-x-x-x-----x-x-x-x------
|--x-x-x-x-----x-x-x-x-----x-x-x-x-----x-x-x-x------
|---------------------------------------------------
...guitar1...                                  pm-----------------        
------------------------------------------------------------------
-----------13----------12-----------10----------------------------
------------------------------------------------------------------
---x-x-x-x-----x-x-x-x-----x-x-x-x-----x-x-x-x--55555555555555555-
---x-x-x-x-----x-x-x-x-----x-x-x-x-----x-x-x-x--77777777777777777-
------------------------------------------------------------------
...guitar1:2x
|----------------|----------------|----------------|----------------| |
|1111111111111111|9-9-9-9-9-9-9-97|8-8-8-8-7-7-7-7-|5-5-588---------| |
|----------------|----------------|----------------|--------8-8-8-8-|.|
|9-9-9-9-9-9-9-9-|7-7-7-7-7-7-7-79|5-5-5-5-5-5-5-5-|2-2-252---------|.|
|----------------|----------------|----------------|--------6-6-6-6-| |
|----------------|----------------|----------------|----------------| |

Guitar2 (some weird effect)
|----------------|----------------|
|----0-------7---|----------------|
|----------7---7-|----0-------8---|
|--5---5-5-------|----------------| REPEAT 3 TIMES
|7---------------|--7---7---6---6-|
|----------------|8-------7-------|

Chorus:
guitar1+2:4x
|00000-0---------|-------------------------------|
|88888-0-77777---|-------------------------------|
|77777-0-77777-2-|10101010101010105-5-5-5-5-5-5-5|
|00000-0-77777---|10101010101010105-5-5-5-5-5-5-5|
|77777-x-55555-2-|8-8-8-8-8-8-8-8-3-3-3-3-3-3-3-3|
|00000-x---------|-------------------------------|

2ndInterlude:
guitar1:2x...
|--------------------------------------------------------------
|--12-12-12-12-12-12-12-12-10-10-10-10-10-10-10-1012-8-8-8-8--
|--------------------------------------------------------------
|--------------------------------------------------------------
|--------------------------------------------------------------
|--------------------------------------------------------------
                               ...guitar1... 
------------------------------|--------------------------------
---7-7-7-7-5-5-5-5/7-5-5-2-2--|--12-12-12-12h15-12-12-12-12----
------------------------------|--------------------------------
------------------------------|--------------------------------
------------------------------|--------------------------------
------------------------------|--------------------------------


...guitar1
-------------10----------------------10--------0-0-0-0-0-0-0-0--|
--10-10-10-10--10-10-10-1012-8-8-8-8--7-7-7-7-5-5-5^5^5^5^5^5^-|
----------------------------------------------------------------|
----------------------------------------------------------------|
----------------------------------------------------------------|
----------------------------------------------------------------|

guitar2:4x
|-------------------------------------------------------------------|
|--------0----------------0----------------0---------------0--------|
|------0----------------0----------------0---------------0----------|
|----5----------------5----------------2---------------2------------|
|--7----------------5----------------3---------------2--------------|
|-------------------------------------------------------------------|


Pre-chorus:
                              bend>>>>>>  
|----------------------------------------------------------------
|----------------------------------------------------------------
|--121212121212-141414141414-121212121212-11111111--161616161616-
|----------------------------------------------------------------
|--101010101010-101010101010-121212121212-12121212--141414141414-
|----------------------------------------------------------------
...guitar1     bend>>>>>>>
----------------------------------------------------------------|
----------------------------------------------------------------|
--141414141414-121212121212-------------------------------------|
----------------------------------------------------------------|
--141414141414-121212121212-22222222----------------------------|
----------------------------00000000----------------------------|

Chorus:
guitar1+2:4x
|00000-0---------|-------------------------------|
|88888-0-77777---|-------------------------------|
|77777-0-77777-2-|10101010101010105-5-5-5-5-5-5-5|
|00000-0-77777---|10101010101010105-5-5-5-5-5-5-5|
|77777-x-55555-2-|8-8-8-8-8-8-8-8-3-3-3-3-3-3-3-3|
|00000-x---------|-------------------------------|

Outro:
guitar1+2...
 STRUM THROUGHOUT                                          PM-------
|0-------2-------|3-------2-------|0-------2-------|3---------------|
|0-------0-------|1-------0-------|0-------0-------|1---------------|
|0-------0-------|0-------2-------|0-------0-------|0---------------|
|2-------0-------|2-------1-------|2-------0-------|2-------11111111|
|2-------X-------|3-------2-------|2-------X-------|3-------22222222|
|0-------3-------|----------------|0-------3-------|----------------|


Текст, аккорды и табулатура для песни "One Armed Scissor", исполняет "At The Drive-in".
Используемые в песне аккорды можно найти в разделе Как брать аккорды. Аккорды для шестиструнной гитары. Другие песни можно найти на нашем сайте, воспользовавшись алфавитным указателем вверху страницы.


Слушать онлайн One Armed Scissor


At The Drive-InOne Armed Scissor на Яндекс.Музыке


 
Ошибка в тексте? Выделите ошибку и нажмите Ctrl+Enter