Artist: At The Drive In
Song  : One Armed Scissor
Album : Relationship of Command
Tab by: Robin Tayor & Mike Davies

E-mail me with any comments you may have at [email protected]


INTRO
G ||--------------|-------------||
D4||--------------|-------------||
A4||------------7-|------------7||
E ||-0-0-0-0-0----|-0-0-0-0-0---||

VERSE (time change)
G ||-------|-------|-------|-------|------------|------------|------------|-----------||
D3||-------|-------|-------|-------|-7--7-7-7-7-|-5--5-5-5-5-|-4--4-4-4-4-|-2--2-2-2-2||
A4||-------|-------|-------|-------|------------|------------|------------|-----------||
E ||-5-----|-5-----|-5-----|-5-5---|------------|------------|------------|-----------|| X4

CHORUS 
G ||--------------|--------------|-----------------|----------------||
D4||--------------|--------------|-----------------|----------------||
A4||------------7-|-5-5-5-5-5----|-8-8-8-8-8-8-8-8-|----------------||
E ||-0-0-0-0-0----|------------7-|-----------------|-8-8-8-8-8-8-8-8|| X4

G ||--------|--------|--------|--------|--------|--------|--------|--------||
D4||--------|--------|--------|--------|-7-7-7-7|-5-5-5-5|-4-4-4-4|-2-2-2-2||
A4||--------|--------|--------|-3-3----|--------|--------|--------|--------||
E ||-5---5--|---3--5-|-5-----5|-----5-3|--------|--------|--------|--------|| X2

VERSE #2
G ||--------|--------|--------|--------|--------|--------|--------|-------||
D4||--------|--------|--------|--------|--------|--------|--------|----7--||
A4||--------|--------|--------|--------|--------|--------|--------|5-7---7||
E ||-5---5--|------0-|--3---3-|------0-|-2---2--|-2-2-3-2|-0----0-|-------|| X2

G ||--------|--------|--------|--------|--------|--------|--------|-------||
D4||--------|-----5--|--------|--------|--------|--------|--------|----7--||
A4||--------|-7------|--------|--------|--------|--------|--------|5-7---7||
E ||-5---5--|------0-|--3---3-|------0-|-2---2--|-2-2-3-2|-0----0-|-------|| X2

G ||--------|--------|--------|--------|--------|--------|--------|-------||
D4||--------|--------|--------|--------|--------|--------|--------|----7--||
A4||--------|--------|--------|--------|--------|--------|--------|5-7---7||
E ||-5---5--|------0-|--3---3-|------0-|-2---2--|-2-2-3-2|-0----0-|-------|| X2

G ||--------|--------|--------|--------|--------|--------|--------|-------||
D4||--------|--------|--------|--------|--------|--------|--------|----7--||
A4||--------|--------|--------|--------|--------|--------|--------|5-7---7||
E ||-5-5-5-5|------0-|-3-3-3-3|--------|-2-2-2-2|-2-2-3-2|-0-0--0-|-------||

                                                      (play these bars X2)
G ||---------|------|--------|------|---------|--------|--------|-------||
D4||---------|------|--------|------|---------|--------|--------|-------||
A4||---------|------|--------|------|---------|--------|--------|-------||
E ||-5-5-5-5-|------|3-3-3-3-|------|-2-2-2-2-|2-2-3-2-|0-0-0-0-|0-0-0-0||

CHORUS 
G ||--------------|--------------|--------|--------|--------|--------||
D4||--------------|--------------|--------|--------|--------|--------||
A4||------------7-|-5-5-5-5-5----|-8-8-8-8|-8-8-8-8|--------|--------||
E ||-0-0-0-0-0----|------------7-|--------|--------|-8-8-8-8|-8-8-8-8|| X4

MIDDLE
G ||--------|--------|-----------|------------|--------|----------|--------|--------||
D4||--------|--------|-----------|------------|--------|----------|--------|--------||
A4||--------|--------|-x-10-10-10|-10-10-10-10|--------|-10-10----|--------|--------||
E ||-0-0-0-0|-0-0-0-0|-----------|------------|-8-8-8-8|-------8-8|-7-7-7-7|-7-7-7-7||

CHORUS 
G ||--------------|--------------|--------|--------|--------|--------||
D4||--------------|--------------|--------|--------|--------|--------||
A4||------------7-|-5-5-5-5-5----|-8-8-8-8|-8-8-8-8|--------|--------||
E ||-0-0-0-0-0----|------------7-|--------|--------|-8-8-8-8|-8-8-8-8|| X4

OUTRO
G ||--------|--------|--------|--------|
D4||--------|--------|--------|--------|
A4||-8-8-8-8|-8-8-8-8|--------|--------|
E ||--------|--------|-8-8-8-8|-8-8-8-8| X2

G ||--------------||
D4||--------------||
A4||------------7-||
E ||-0-0-0-0-0----||


Текст, аккорды и табулатура для песни "One Armed Scissor", исполняет "At The Drive-in".
Используемые в песне аккорды можно найти в разделе Как брать аккорды. Аккорды для шестиструнной гитары. Другие песни можно найти на нашем сайте, воспользовавшись алфавитным указателем вверху страницы.


Слушать онлайн One Armed Scissor


At The Drive-InOne Armed Scissor на Яндекс.Музыке


 
Ошибка в тексте? Выделите ошибку и нажмите Ctrl+Enter