Intro:

guitar1           
|--8-8-8-8-8---------8-8-8-8-8-------------|
|--7-7-7-7-7----7----7-7-7-7-7----0--------|
|------------------------------------------|
|--7-7-7-7-7----7----7-7-7-7-7----7--------|
|------------------------------------------|

_______________________________________________________________________


Pre-Verse:

guitar1:4x...
|-------------------------------------------------
|------0---0-----0---0-----0---0-------0---0------
|----0---0-----0---0-----0---0-------0---0--------
|--7---------7---------7---------7-7--------------
|-------------------------------------------------
|-------------------------------------------------
...guitar1              NH   NH  NH
----------------------------------------------------|
---------------------------------7^-----------------|
-----------------------------7----------------------|
-------------------------7--------------------------|
----------------------------------------------------|
----------------------------------------------------|

guitar2:4x...
|-------------------------------------------------
|------5---5-----5---5-----5---5-------5---5------
|--0-4---4---0-4---4---0-4---4---0-0-4---4--------
|--2---------2---------2---------2-2--------------
|-------------------------------------------------
|-------------------------------------------------
...guitar2     grad.bend>>>>>>>>>>>
----------------------------------------------------|
----5---5---5---5---5---5---5---5---5---5---5---5---|
--4---4---4---4---4---4---4---4---4---4---4---4-----|
----------------------------------------------------|
----------------------------------------------------|
----------------------------------------------------|

_______________________________________________________________________


Chorus:

guitar1+2:4x
|----------------------------------------------------------------|
|--8-8-8-8-8-----7-7-7-7-7---------------------------------------|
|--7-7-7-7-7--7--7-7-7-7-7--7--10-10-10-10-10-10--5-5-5-5-5-5----|
|----------------------------------------------------------------|
|--7-7-7-7-7--7--5-5-5-5-5--5--8--8--8--8--8--8---3-3-3-3-3-3----|
|----------------------------------------------------------------|

_______________________________________________________________________


Prelude:

guitar1:2x
|------------------------------------------------------------------|
|--------0-------0-------0-------0---------------------------------|
|------0-------0-------0-------0-------0-------0-------0-------0---|
|----7-------7-------7-------7-------0-------0-------0-------0-----|
|--7-------7-------7-------7-------7-------5-------3-------2-------|
|------------------------------------------------------------------|

guitar2:2x|NH NH NH             NH NH NH
|-------------------------------------------------------------------|
|--------0------------------0-----------------0---------------------|
|------0------------------0-----------------0-------0-----0---------|
|----2------------------2-----------------2-------0-----0---2-------|
|--x------(2)-(2)(2)--x-------(2)-(2)(2)--------5-----3-------3-2-0-|
|-------------------------------------------------------------------|

_______________________________________________________________________


2ndVerse:

guitar1:2x                     
|-------------------------------------------------------------------|
|-------------------------------------------------------------------|
|-------------------------------------------------------------------|
|--77777777---------5555555----------44444444--------22222222-------|
|--77777777---------7777777----------55555555--------22222222-------|
|-------------------------------------------------------------------|
guitar1:2x
|-------------------------------------------------------------------|
|-------------------------------------------------------------------|
|--0----------------0----------------0---------------0--------------|
|--7----------------5----------------4---------------2--------------|
|--7----------------7----------------5---------------2--------------|
|-------------------------------------------------------------------|


guitar2:4x                       NH
|--12-0---0-10-0----12-0------------12-0---0-10-0------------------------|
|-------0--------12------0---12-0-7------0--------10-12---------12-13-12-|
|-------------------------------------------------------12-11-9----------|
|------------------------------------------------------------------------|
|------------------------------------------------------------------------|
|------------------------------------------------------------------------|

_______________________________________________________________________


2ndVerse:

guitar1...                                     delay             
|---------------------------------------------------
|----------13----------------------------------10/--
|----------16^---------16^---------14^--------------
|--x-x-x-x-----x-x-x-x-----x-x-x-x-----x-x-x-x------
|--x-x-x-x-----x-x-x-x-14^-x-x-x-x-12^-x-x-x-x------
|---------------------------------------------------
...guitar1...                                                  
----------------------------------------------------
-----------------------13----------------------10/--
-----------16^---------16^---------14^--------------
---x-x-x-x-----x-x-x-x-----x-x-x-x-----x-x-x-x------
---x-x-x-x-14^-x-x-x-x-----x-x-x-x-12^-x-x-x-x------
----------------------------------------------------
...guitar1:2x
-----------------------------------------------------------|
-----------------------------------------------------------|
--171717171717---161616161616--141414141414--121212121212--|
-----------------------------------------------------------|
--151515151515---141414141414--121212121212--101010101010--|
-----------------------------------------------------------|


guitar2:4x NH///         NH///         NH///       NH///
|----------------------------------------------------------|
|----------(5)-----------(5)----------(5)----------(5)-----|
|-17171717-(5)--16161616-(5)-14141414-(5)-12121212-(5)-----|
|----------(5)-----------(5)----------(5)----------(5)-----|
|-15151515------14141414-----12121212-----10101010---------|
|----------------------------------------------------------|

_______________________________________________________________________


Chorus:

guitar1+2:4x
|----------------------------------------------------------------|
|--8-8-8-8-8-----7-7-7-7-7---------------------------------------|
|--7-7-7-7-7--7--7-7-7-7-7--7--10-10-10-10-10-10--5-5-5-5-5-5----|
|----------------------------------------------------------------|
|--7-7-7-7-7--7--5-5-5-5-5--5--8--8--8--8--8--8---3-3-3-3-3-3----|
|----------------------------------------------------------------|

_______________________________________________________________________


2ndInterlude:

guitar1:2x...
|--------------------------------------------------------------
|--12-12-12-12-12-12-12-12-10-10-10-10-10-10-10-1012-8-8-8-8--
|--------------------------------------------------------------
|--------------------------------------------------------------
|--------------------------------------------------------------
|--------------------------------------------------------------
                               ...guitar1... 
------------------------------|--------------------------------
---7-7-7-7-5-5-5-5/7-5-5-2-2--|--12-12-12-12h15-12-12-12-12----
------------------------------|--------------------------------
------------------------------|--------------------------------
------------------------------|--------------------------------
------------------------------|--------------------------------
...guitar1
-------------10----------------------10--------0-0-0-0-0-0-0-0--|
--10-10-10-10--10-10-10-1012-8-8-8-8--7-7-7-7-5-5-5^5^5^5^5^5^-|
----------------------------------------------------------------|
----------------------------------------------------------------|
----------------------------------------------------------------|
----------------------------------------------------------------|

guitar2:4x
|-------------------------------------------------------------------|
|--------0----------------0----------------0---------------0--------|
|------0----------------0----------------0---------------0----------|
|----5----------------5----------------2---------------2------------|
|--7----------------5----------------3---------------2--------------|
|-------------------------------------------------------------------|

_______________________________________________________________________


Pre-chorus:

guitar1...                    bend>>>>>>  
|----------------------------------------------------------------
|----------------------------------------------------------------
|--121212121212-141414141414-121212121212-11111111--161616161616-
|----------------------------------------------------------------
|--101010101010-101010101010-121212121212-12121212--141414141414-
|----------------------------------------------------------------
...guitar1     bend>>>>>>>
----------------------------------------------------------------|
----------------------------------------------------------------|
--141414141414-121212121212-------------------------------------|
----------------------------------------------------------------|
--141414141414-121212121212-22222222----------------------------|
----------------------------00000000----------------------------|


guitar2...                      whammypedal
|----------------------------------------------------------------
|----------------------------------------------------------------
|--121212121212-141414141414-12-----------11--------161616161616-
|----------------------------------------------------------------
|--101010101010-101010101010-12-----------12--------141414141414-
|----------------------------------------------------------------
...guitar2              
---------------------15-15-15-15-15-15--------------------------|
--8--8--8--8--8--8---19^19^19^19^19^19^-------------------------|
--11^11^11^11^11^11^--------------------------------------------|
----------------------------------------------------------------|
----------------------------------------22222222----------------|
----------------------------------------00000000----------------|

_______________________________________________________________________


Chorus:

guitar1+2:4x
|----------------------------------------------------------------|
|--8-8-8-8-8-----7-7-7-7-7---------------------------------------|
|--7-7-7-7-7--7--7-7-7-7-7--7--10-10-10-10-10-10--5-5-5-5-5-5----|
|----------------------------------------------------------------|
|--7-7-7-7-7--7--5-5-5-5-5--5--8--8--8--8--8--8---3-3-3-3-3-3----|
|----------------------------------------------------------------|

_______________________________________________________________________


Outro:

guitar1+2...
|-------------------------------------------------------------------
|-------------------------------------------------------------------
|--10-10-10-10-10-10--5-5-5-5-5-5---10-10-10-10-10-10--5-5-5-5-5-5--
|-------------------------------------------------------------------
|--8--8--8--8--8--8---3-3-3-3-3-3---8--8--8--8--8--8---3-3-3-3-3-3--
|-------------------------------------------------------------------
...guitar1+2
-------------------------------------------------------------------|
---8-8-8-8-8-------------------------------------------------------|
---7-7-7-7-7--7----------------------------------------------------|
-------------------------------------------------------------------|
---7-7-7-7-7--7----------------------------------------------------|
-------------------------------------------------------------------|



=^_^=
feel free to talk to me 'bout it ~~>[email protected]
send all hate mail and/or comments/compliments to ~~>[email protected]

                                                             -sleepwalker-


Текст, аккорды и табулатура для песни "One Armed Scissor", исполняет "At The Drive-in".
Используемые в песне аккорды можно найти в разделе Как брать аккорды. Аккорды для шестиструнной гитары. Другие песни можно найти на нашем сайте, воспользовавшись алфавитным указателем вверху страницы.


Слушать онлайн One Armed Scissor


At The Drive-InOne Armed Scissor на Яндекс.Музыке


 
Ошибка в тексте? Выделите ошибку и нажмите Ctrl+Enter