Artist: 	Ash
Album: 		Free All Angels
Track: 		Sometimes (Intro.)
Tabbed by: 	Jon Purslove ([email protected])

This song is the next release from the Free All Angels album, I figured
out the intro. Riff I don't know the rest, anyone who finds out the
chords will win a mystery star prize!! Contact me if anyone knows the
chords, anywho the intro. Starts with some clean guitar picking I don't
know the chord but I think its around A when played an octave up.

e---------------------------------------------------------------------------------------------------|
B--------14-------14------------14-------15h14------------------------------------------------------|
G---14-------14------------14-------14-----------14-------------------------------------------------|
D---------------------------------------------------------------------------------------------------|
A---------------------------------------------------------------------------------------------------|
E---------------------------------------------------------------------------------------------------|

Play this twice and then just before the second clean riff finishes
the distorted guitar comes in (again, listen to the CD for the
correct timing):

e------0-------------------------0----------------------------0-------------------------------------|
B--------3--2--2-2-2-2-----------3--2--2-2-2-2-2b-2--------3--2--2-2-2-2----2-2h3h2-----------------|
G--2----------------------1--2----------------------------2---------------------1---------22-42-----|
D---------------------------------------------------------------------------------------------------|
A---------------------------------------------------------------------------------------------------|
E---------------------------------------------------------------------------------------------------|

Listen to the track for proper timing, this sounds good enough
obviously you can play it elsewhere on the fret board but it'll
still sound da same.

Cheers, any comments, questions, abuse, prize claims to
[email protected]

farewell.


Текст, аккорды и табулатура для песни "Sometimes", исполняет "Ash".
Используемые в песне аккорды можно найти в разделе Как брать аккорды. Аккорды для шестиструнной гитары. Другие песни можно найти на нашем сайте, воспользовавшись алфавитным указателем вверху страницы.


 
Ошибка в тексте? Выделите ошибку и нажмите Ctrl+Enter